PrimaNota.ru - самый крупный в мире бесплатный архив песенных текстов, аккордов, табулатур и нот


Gojira - Remembrance - текст песни, таба, видео

Регистрация Запомнить меня
Войти через:  Facebook Google Twitter Vk Yandex Mail.ru

Gojira - Remembrance - текст песни, таба, видео

Печатать
Просмотров: 141
Author/Artist: Gojira
Title: Remembrance
Album: The Link
Transcribed by: Jaymz88
DGCFAD

---------------------------------------------------------------------------|
---------------------------------------------------------------------------|
---------------------------------------------------------------------------|
---------------------------------------------------------------------------|
---------------------------------------------------------------------------|
-4-2-4-2-4-2-4-2-1-2---4-2-4-2-4-2-4-2-2-1-2---1111111111-00-1111-22222222-|


---------------------------------------------------------------------------|
---------------------------------------------------------------------------|
---------------------------------------------------------------------------|
---------------------------------------------------------------------------|
---------------------------------------------------------------------------|
-1111-00---1111111111-00-1111-22222222-1111-00---1111111111-00-1111--------|


---------------------------------------------------------------------------|
---------------------------------------------------------------------------|
---------------------------------------------------------------------------|
---------------------------------------------------------------------------|
---------------------------------------------------------------------------|
-22222222-1111-00--22-44-2222-1111-222222-111111----1111111111-00-1111-----|


---------------------------------------------------------------------------|
---------------------------------------------------------------------------|
---------------------------------------------------------------------------|
---------------------------------------------------------------------------|
---------------------------------------------------------------------------|
-222222222-1111-00---11111111111-00-1111-2222222222-111111-00--1111111111--|


-------------------------------------------------0-------------------------|
-------------------------------------------------0-------------------------|
-------------------------------------------------0-------------------------|
-------------------------------------------------------3-3-3---------------|
-------------------------------------------------------1-1-1--0-1-2-1-0-1-2|
-00-1111-2222222222-1111-00--4-2-4-2-4-2-4-2-1-2---0-0-1-1-1--0-1-2-1-0-1-2|
                                                  PM--        -------------|

---------------------------------------------|-----------------------------|
---------------------------------------------|-----------------------------|
---------------------------------------------|-----------------------------|
---------3-3-3-------------------------3-3-3-|------------------------3-3-3|
-1-0-1-2-1-1-1---0-1-2-1-0-1-2-1-0-1-2-1-1-1-|--0-1-2-1-0-1-2-1-0-1-2-1-1-1|
-1-0-1-2-1-1-1---0-1-2-1-0-1-2-1-0-1-2-1-1-1-|--0-1-2-1-0-1-2-1-0-1-2-1-1-1|
 -------         ---------------------          ---------------------------|

--------|------------------------------------------------------------------|
--------|------------------------------------------------------------------|
--------|-------------------------------3-----3-----3-----3-----3-----3----|
-3-3----|-------------------------------x-----x-----x-----x-----x-----x----|
-1-1----|----33333333333-22222222222----1-----1-----1-----1-----1-----1----|
-1-1----|-----------------------------0---0-0---0-0---0-0---0-0---0-0---0-0|
          PM----------------------  -   ---   ---   ---   ---   ---   ---

---------------------------------------------------------------------------|
---------------------------------------------------------------------------|
-3/2------------------------------------------------------3-----3-----3----|
-x-x----5-----5-----5-----5/4--x4-------------------------x-----x-----x----|
-1/0----x-----x-----x-----x-x-----------------------------1-----1-----1----|
------0-3-0-0-3-0-0-3-0-0-3/2-----111111111100000000----0---0-0---0-0---0-0|
      -   ---   ---   ---         ------------------    -   ---   ---   ---

----------|----------------------------------------------------------------|
----------|----------------------------------------------------------------|
-3/5------|----0-----0-----0-----0-----0-----0-----------------------------|
-x-x--x4--|---------------------------------------------4-5-5-5-4-5-4------|
-1/3------|---------------------------------------------x-x-x-x-x-x-x------|
----------|--4----4-----4-----4-----5-----5-------0-0-0-2/3-3-3-2-3-2-1b---|
                                                  -----

---------------------------------------------------------------------------|
---------------------------------------------------------------------------|
---------------------------------------------------------------------------|
---------------------------------------------------------------------------|
--xx--xx--xx--xx--xxxxxxx--xxxxxxx--xxxxxxxxxxxxxxx----xx--xx--xx----------|
--xx--xx--xx--xx--xxxxxxx--xxxxxxx--xxxxxxxxxxxxxxx----xx--xx--xx----------|
 PM------------------------------------------------------------------------|
(Follow the drums)
Добавлено: 04.05.2012
Другие материалы по этой песне:

Страница создана 08.03.2012
http://primanota.ru/gojira/remembrance-chords.htm
Привет, Гость.
Предлагаем пройти революционный курс по гитаре.
Подарок от PrimaNota.Ru, забирай!