PrimaNota.ru - самый крупный в мире бесплатный архив песенных текстов, аккордов, табулатур и нот


Gojira - Satan Is A Lawyer - текст песни, таба, видео

Регистрация Запомнить меня
Войти через:  Facebook Google Twitter Vk Yandex Mail.ru

Gojira - Satan Is A Lawyer - текст песни, таба, видео

Печатать
Просмотров: 145
Gojira - Satan is a Lawyer

|----------------------------------------------------------------------------|
|----------------------------------------------------------------------------|
|----------------------------------------------------------------------------|
|----11---11----7---7---4---5---5---3---2---3---3---5---6-6-6--7-7-7---------|
|----11---11----7---7---4---5---5---3---2---3---3---5---6-6-6--7-7-7---------|
|-----9-----9----5---5---2---3---3---1---0---1---1---3---4-4-4--5-5-5--------|
Verse

|----------------------------------------------------------------------------|
|----------------------------------------------------------------------------|
|----------------------------------------------------------------------------|
|----------------------------------------------------------------------------|
|-------------------0-2-2-2-1~-1~--------------------------------------------|
|----0-0-2-2-3---------------------------------------------------------------|
Refrain


Solo
|----------------------------------------------------------------------------|
|----------------------------------------------------------------------------|
|----------------------------------------------------------------------------|
|----------------------------------------------------------------------------|
|----------------------------------------------------------------------------|
|----4444444-2222222-555555-22222222-44444444-5555555------------------------|

|-------------------------------------------------------------------------------|
|-------------------------------------------------------------------------------|
|-------------------------------------------------------------------------------|
|----------------------------------------------------------------------------|--|
|---666666-4444444-777777-44444444-6666666-77777777-----------------------------|

|----------------------------------------------------------------------------|
|----------------------------------------------------------------------------|
|----------------------------------------------------------------------------|
|----------------------------------------------------------------------------|
|----------------------------------------------------------------------------|
|----4444444-2222222-555555-22222222-44444444-5555555------------------------|

DreadLord-IoN
Добавлено: 13.03.2012
Другие материалы по этой песне:

Страница создана 13.03.2012
http://primanota.ru/gojira/satan-is-a-lawyer-chords.htm
Привет, Гость.
Предлагаем пройти революционный курс по гитаре.
Подарок от PrimaNota.Ru, забирай!