PrimaNota.ru - самый крупный в мире бесплатный архив песенных текстов, аккордов, табулатур и нот


Ghost Brigade - Soulcarvers - текст песни, таба, видео

Регистрация Запомнить меня
Войти через:  Facebook Google Twitter Vk Yandex Mail.ru

Ghost Brigade - Soulcarvers - текст песни, таба, видео

Печатать
Просмотров: 201
-------------------------------------------------------------------------------
                             Ghost Brigade - Soulcarvers
-------------------------------------------------------------------------------
Tabbed by:melastus
E-mail: rexshredder69@gmail.com

This is how I play the Soulcarvers by Ghost brigade
Video of me playing it:
https://www.youtube.com/watch?v=lOO0gEJjizY&lc=z13rh1wxptyuurc5004cfju5vkrrwlaz1zg0k
This is pretty much the first tab I've ever made so it might be a bit weirdly done.
Tuning: Drop C
Song: Verse, 2nd Guitar, Versex2, 2nd Guitar, Versex2, Interlude, Chorus pt1, Chorus 
pt2, Versex2, Interlude,
Chorus pt1, Choruspt2x2, Interlude2, Outrox4, 2nd Guitarx2

d|---------------------------------------------------------------------------|
a|-----3------3--------------------------------------------------------------|
f|----------------------9---9/11\9\7\4-----7-----7--------0-----0------------|
C|---4------4-----4---7---7--------------4-----4----4---4-----4-----4--------|
G|-2------2-----2---0--------------------------------------------------------|
C|-------------------------------------5-----5----5---2-----2-----2----------|
                                                                                Verse
d|---------------------------------------------------------------------------|
a|-----3------3--------------------------------------------------------------|
f|----------------------9---9/11\9\7\4-----7-----7--------0-----0------------|
C|---4------4-----4---7---7--------------4-----4----4---4-----4-----4--------|
G|-2------2-----2---0--------------------------------------------------------|
C|-------------------------------------5-----5----5---0-----0-----0----------|

d|------------------5--------------------------------------------------------|
a|---7-5750-3-5-3-----5---3-5-7~-7-5750-3-5-3----3---3---3-5-----------------|
f|-4--------------4-----4----------------------4---4---4---------------------|
C|---------------------------------------------------------------------------|
G|---------------------------------------------------------------------------|
C|---------------------------------------------------------------------------|
                                                                                2nd Guitar
d|------------------5--------------------------------------------------------|
a|---7-5750-3-5-3-----5---3-5-7~-7-5750-3-5-3----3---3---3-0-----------------|
f|-4--------------4-----4----------------------4---4---4-----4---------------|
C|---------------------------------------------------------------------------|
G|---------------------------------------------------------------------------|
C|---------------------------------------------------------------------------|

d|---------------------------------------------------------------------------|
a|---------------------------------------------------------------------------|
f|-----7-----7---------7-----7-----------------------------------------------|
C|---4-----4----4----5-----5-----5-------------------------------------------|  Interlude
G|---------------------------------------------------------------------------|
C|-5-----5----5----7-----7-----7---------------------------------------------|

d|---------------------------------------------------------------------------|
a|---------------------------------------------------------------------------|
f|-----------------9--------------9----7-------------------------------------|
C|-9-----7----5----9x8--9----7----9x8--7x8-----------------------------------|  Chorus pt1
G|-9x8---7x8--5x8--7----9x8--7x8--7----5-------------------------------------|
C|-9-----7----5---------9----7-----------------------------------------------|

d|---------------------------------------------------------------------------|
a|------------------------------------------15----14----10-------------------|
f|-11---14----16----9----11---9----11---------x6----x6----x4-12-----11-------|
C|---x16--x8----x8---x8----x8--x16---x16----12----11----7------x16---x16-----|  Chorus pt2
G|-9----12----14----7----9----7----9-------------------------10-----9--------|
C|---------------------------------------------------------------------------|

d|---------------------------------------------------------------------------|
a|---------------------------------------------------------------------------|
f|-5-----------------7-------------------------------------------------------|
C|-5x8---------------7x8-----------------------------------------------------|  Interlude 2
G|-7-----------------5-------------------------------------------------------|
C|---------------------------------------------------------------------------|

d|---------------------------------------------------------------------------|
a|-----3------3----------------------------7-----7---------------------------|
f|----------------------9---9/11\9\7\4--------------------0-----0------------|
C|---4------4-----4---7---7--------------4-----4----4---4-----4-----4--------| Outro
G|-2------2-----2---0--------------------------------------------------------|
C|-------------------------------------5-----5----5---0-----0-----0----------|

************************************

| /   slide up
| \   slide down
| h   hammer-on
| p   pull-off
| ~   vibrato
| +   harmonic
| x   Mute note
| b   Bend
| pb  Pre-bend
| br  Bend release
| pbr Pre-bend release
| brb Bend release bend

************************************
Добавлено: 21.04.2015
Другие материалы по этой песне:

Страница создана 07.11.2013
http://primanota.ru/ghost-brigade/soulcarvers-chords.htm
Привет, Гость.
Предлагаем пройти революционный курс по гитаре.
Подарок от PrimaNota.Ru, забирай!