PrimaNota.ru - самый крупный в мире бесплатный архив песенных текстов, аккордов, табулатур и нот


Ghost Brigade - Long Way To The Graves - таба, видео

Регистрация Запомнить меня
Войти через:  Facebook Google Twitter Vk Yandex Mail.ru

Ghost Brigade - Long Way To The Graves - таба, видео

Печатать
Просмотров: 87
Another solo tabbed by myself in Drop A#, but here you can also convert if you are using another tunning ^^

C |----------------------------------------------------------------------------------------|
G |-------------9h10-9-9-9-9-9-9--------------------9h10-9---------------------9h10-9------|
D#|-6-6-6-6-6-6---------------------9-6-6-6-6-6-6-6--------6---9-6-6-6-6-6-6-6-------------|
A#|------------------------------9---------------------------9-----------------------------|
F |----------------------------------------------------------------------------------------|
A#|----------------------------------------------------------------------------------------|

C |-----7-7h9------------------------------------------------------------------------------|
G |-7-9-------9--10-9-7---7-7--------------------------------------------------------------|
D#|---------------------9------------------------------------------------------------------|
A#|----------------------------------------------------------------------------------------|
F |----------------------------------------------------------------------------------------|
A#|----------------------------------------------------------------------------------------|

Done !

************************************

| /   slide up
| \   slide down
| h   hammer-on
| p   pull-off
| ~   vibrato
| +   harmonic
| x   Mute note
| b   Bend
| pb  Pre-bend
| br  Bend release
| pbr Pre-bend release
| brb Bend release bend

************************************
Добавлено: 03.10.2015
Другие материалы по этой песне:

Страница создана 03.10.2015
http://primanota.ru/ghost-brigade/long-way-to-graves-chords.htm
Привет, Гость.
Предлагаем пройти революционный курс по гитаре.
Подарок от PrimaNota.Ru, забирай!