PrimaNota.ru - самый крупный в мире бесплатный архив песенных текстов, аккордов, табулатур и нот


Ghost Brigade - Concealed Revulsions - таба, видео

Регистрация Запомнить меня
Войти через:  Facebook Google Twitter Vk Yandex Mail.ru

Ghost Brigade - Concealed Revulsions - таба, видео

Печатать
Просмотров: 206
This is the intro and the pre chorus verse of Ghost Brigade - Concealed Revulsions.


Intro and pre-chorus verses  No distortion used. The tuning should drop C - dk the exact tuning.
Guitar 1


|---0---0---1---0---0---0---1----0-|
|--3---3---3---3---3---3---3----3--|
|-2---2---2---2---2---2---2----2---|
|0---0---0---0---------------------|
|----------------3---3---1----1----|
|----------------------------------|

|---0---0---1---0---0--------1----0-|
|--3---3---3---3---3---3----3----3--|
|-2---2---2---2---2---2-2--2----2---|
|0---0---0---0----------------------|
|----------------3---3----1----1----|
|-----------------------------------|


And in the background there is guitar 2

With this:(Note that this is verse is played through the non distorted parts in intro 
and pre-chorus)


|--------------------------------------------------|
|--/7-9-7-------/7-9-7-----------------------------|
|---------8-8/9----------8-8/9-9/8-----------------|
|--------------------------------------------------|
|--------------------------------------------------|
|--------------------------------------------------|

There is also this part during the second pre chorus

|-----15--15--15------------------------------------|
|---18--18--18--18----------------------------------|
|---------------------------------------------------|
|---------------------------------------------------|
|---------------------------------------------------|
|---------------------------------------------------|




Tabbeb by M1kk -
Any questions or problems - contact me - [(psy-cho@hotmail.com)]
Добавлено: 04.06.2012
Другие материалы по этой песне:

Страница создана 15.03.2012
http://primanota.ru/ghost-brigade/concealed-revulsions-chords.htm
Привет, Гость.
Предлагаем пройти революционный курс по гитаре.
Подарок от PrimaNota.Ru, забирай!