PrimaNota.ru - самый крупный в мире бесплатный архив песенных текстов, аккордов, табулатур и нот


Ghost Brigade - Disembodied Voices - таба, видео

Регистрация Запомнить меня
Войти через:  Facebook Google Twitter Vk Yandex Mail.ru

Ghost Brigade - Disembodied Voices - таба, видео

Печатать
Просмотров: 152
-------------------------------------------------------------------------------
                             Disembodied Voices - Ghost Brigade
-------------------------------------------------------------------------------
Hello everyone, I made the end solo of this beautiful song. I played it in Drop A# but if you are using another
tunning you can convert
Don't hesitate to send me correction suggestions if you think there are mistakes on this tab

C |---------------------------------------------------------------------------------------------------------|
G |-12-15-15-14-12------------------------------------------------12-15-15-14-12----------------12-12-14-14-|
D#|----------------11-14-14-11-11------------------------------------------------11-14-14-11-11-------------|
A#|-------------------------------14-14-12-12-12h14-12-11---------------------------------------------------|
F |-------------------------------------------------------12------------------------------------------------|
A#|----------------------------------------------------------14---------------------------------------------|

C |---------------------------------------------------------------------------------------------------------|
G |-15-15/17-15-14-15-15-14-12------------------------------------------------------------------------------|
D#|---------------------------------------------------------------------------------------------------------|
A#|---------------------------------------------------------------------------------------------------------|
F |---------------------------------------------------------------------------------------------------------|
A#|---------------------------------------------------------------------------------------------------------|

Done !

************************************

| /   slide up
| \   slide down
| h   hammer-on
| p   pull-off
| ~   vibrato
| +   harmonic
| x   Mute note
| b   Bend
| pb  Pre-bend
| br  Bend release
| pbr Pre-bend release
| brb Bend release bend

************************************
Добавлено: 21.04.2015
Вам также может быть интересно:
Другие материалы по этой песне:
  • Аккорды и текст

Страница создана 21.04.2015
http://primanota.ru/ghost-brigade/disembodied-voices-chords.htm
Привет, Гость.
Предлагаем пройти революционный курс по гитаре.
Подарок от PrimaNota.Ru, забирай!