PrimaNota.ru - самый крупный в мире бесплатный архив песенных текстов, аккордов, табулатур и нот


Ghost Brigade - Clawmaster - текст песни, таба, видео

Регистрация Запомнить меня
Войти через:  Facebook Google Twitter Vk Yandex Mail.ru

Ghost Brigade - Clawmaster - текст песни, таба, видео

Печатать
Просмотров: 230
Band:  Ghost Brigade
Album: Until Fear No Longer Defines Us
Song:  Clawmaster

Tabbed and uploaded by Erkryss

/  - slide up to
\  - slide down to
b  - Bend
x  - Muted Slash

Tuning: C Standard (C F Bb Eb G C)


Riff 1:
                                                    3x
#c||:------------------------|------------------------:|----------------|----------------|
#G||:------------------------|------------------------:|----------------|----------------|
Eb||:------------------------|------------------------:|3-3-3-3-3-3-3-3-|3/6-6-6-xx6-6-xx|
Bb||:------------------------|------------------------:|5-5-5-5-5-5-5-5-|5/8-8-8-xx8-8-xx|
#F||:20-20-20-19-19-19----19-|---22-22-22-22-22-22-17-:|5-5-5-5-5-5-5-5-|5/8-8-8-xx8-8-xx|
#C||:0--0--0--0--0--0-----0--|---0--0--0--0--0--0--0--:|3-3-3-3-3-3-3-3-|3/6-6-6-xx6-6-xx|


Verse:

|:----------------|----------------|----------------|----------------|
|:----------------|----------------|----------------|----------------|
|:----------------|----------------|----------------|----------------|
|:--2-3---2-------|----------------|--2-3---0-3-2---|----------------|
|:----------------|----------------|----------------|----------------|
|:0-----0---------|----------------|0-----0---------|----------------|

|----------------|----------------|----------------|-----------------:|
|----------------|----------------|----------------|-----------------:|
|----------------|----------------|----------------|-----------------:|
|--2-3---2-------|----------------|--2-3---0-3-2---|-----------------:|
|----------------|----------------|----------------|-----------------:|
|0-----0---------|----------------|0-----0---------|------0-3b-------:|

[note: If the Verse is followed by Riff 1, it's like this. (1st time)
If it goes into the Chorus, the last bar of the repitition is blank (2nd+3rd time).]


Chorus:
Rhythm and Lead Guitar are put together in this tab.
Rhythm Guitar plays the Powerchords (obviously).
Lead Guitar plays ONLY the high c string.
[note: whereever "10" appears, it is a ten, not 1&0]


|7057007057007057|00705700705070100|7057007057007057|00705700705070100|
|----------------|-----------------|----------------|-----------------|
|5-5-5-5-5-5-5-5-|5-5-5-5-5-5-5-5--|----------------|-----------------|
|5-5-5-5-5-5-5-5-|5-5-5-5-5-5-5-5--|2-2-2-2-2-2-2-2-|2-2-2-2-2-2-2-2--|
|3-3-3-3-3-3-3-3-|3-3-3-3-3-3-3-3--|2-2-2-2-2-2-2-2-|2-2-2-2-2-2-2-2--|
|----------------|-----------------|0-0-0-0-0-0-0-0-|0-0-0-0-0-0-0-0--|

|5035005035005035|0050350050305070|8078008078008078|0080780080703050|
|----------------|----------------|----------------|----------------|
|7-7-7-7-7-7-7-7-|7-7-7-7-7-7-7-7-|----------------|----------------|
|7-7-7-7-7-7-7-7-|7-7-7-7-7-7-7-7-|7-7-7-7-7-7-7-7-|7-7-7-7-7-7-7-7-|
|5-5-5-5-5-5-5-5-|5-5-5-5-5-5-5-5-|7-7-7-7-7-7-7-7-|7-7-7-7-7-7-7-7-|
|----------------|----------------|5-5-5-5-5-5-5-5-|5-5-5-5-5-5-5-5-|

|7057007057007057|00705700705070100|7057007057007057|00705700705070100|
|----------------|-----------------|----------------|-----------------|
|5-5-5-5-5-5-5-5-|5-5-5-5-5-5-5-5--|----------------|-----------------|
|5-5-5-5-5-5-5-5-|5-5-5-5-5-5-5-5--|2-2-2-2-2-2-2-2-|2-2-2-2-2-2-2-2--|
|3-3-3-3-3-3-3-3-|3-3-3-3-3-3-3-3--|2-2-2-2-2-2-2-2-|2-2-2-2-2-2-2-2--|
|----------------|-----------------|0-0-0-0-0-0-0-0-|0-0-0-0-0-0-0-0--|

|5035005035005035|0050350050305070|8078008078008078|0080780080705030|  |0-----------|
|----------------|----------------|----------------|----------------|  |-the end of-|
|----------------|-/7-7-7-7-7-7-7-|----------------|----------------|  |--the song--|
|5-5-5-5-5-5-5-5-|5/7-7-7-7-7-7-7-|7-7-7-7-7-7-7-7-|7-7-7-7-7-7-7-7-|  |2-----------|
|5-5-5-5-5-5-5-5-|5/5-5-5-5-5-5-5-|7-7-7-7-7-7-7-7-|7-7-7-7-7-7-7-7-|  |2-----------|
|3-3-3-3-3-3-3-3-|3---------------|5-5-5-5-5-5-5-5-|5-5-5-5-5-5-5-5-|  |0-----------|

[note: If the Chorus is repeated (at the end), Lead Guitar ends on "80703050".
If the Chorus is not repeated (1st time and at the very end), it ends like this.]


Solo:

|:----------------|15----14--------|---------------|----------------|
|:12----------12--|------------13--|--12-----------|--------15---\10|
|:----------------|----------------|---------------|----------------|
|:----------------|----------------|---------------|----------------|
|:----------------|----------------|---------------|----------------|
|:----------------|----------------|---------------|----------------|

|----------------|----------------|---------------|--------only at-:|--------|
|10----------10--|12----10----12--|87-------------|--------the end-:|--------|
|----------------|----------------|--9------------|--------9\7-7/9-:|9-------|
|----------------|----------------|---------------|----------------:|--------|
|----------------|----------------|---------------|----------------:|--------|
|----------------|----------------|---------------|----------------:|--------|
Добавлено: 06.06.2012
Другие материалы по этой песне:
  • Аккорды и текст

Страница создана 06.06.2012
http://primanota.ru/ghost-brigade/clawmaster-chords.htm
Привет, Гость.
Предлагаем пройти революционный курс по гитаре.
Подарок от PrimaNota.Ru, забирай!