PrimaNota.ru - самый крупный в мире бесплатный архив песенных текстов, аккордов, табулатур и нот


Freddie King - My Feeling For The Blues - бас-таба, видео

Регистрация Запомнить меня
Войти через:  Facebook Google Twitter Vk Yandex Mail.ru

Freddie King - My Feeling For The Blues - бас-таба, видео

Печатать
Просмотров: 42
Уроки эстрадного вокала в Санкт-Петербурге
G|----------------|--------------|--------------|-------------------|
D|----------------|--------------|--------------|-------------------|
A|--3--1--0-------|-----0--1--2--|--3--------1--|--3--1--0----3-----|
E|-----------3-0--|--1-----------|-----0--3-----|-----------3---0---|

G|-----------------|----------------|--------------|----------0---------|
D|-----------------|----------------|--------------|-------2------------|
A|-------0--3--0---|-------0--1--2--|--3--------0--|--3-3--------3------|
E|--1-1----------0-|--1-1-----------|-----0--3-----|---------------0-1--|


G|-----------------|----------------|--------------|---------------------|
D|----------0------|----------------|-----2--3--4--|--5------------------|
A|-------2---------|-------0--1--2--|--3-----------|-------1--2----------|
E|--3-3-------3-2--|--1-1-----------|--------------|-----3---------------|

G|----5-------0----|----------------|-----------------|-----5-------------|
D|---------2-------|----------------|-------2--5------|-------------------|
A|--3---3----------|------0--1--2---|--3-3----------0-|--3-----3----------|
E|--------------3--|--1-1-----------|-------------3---|-----------0--3-2--|


G|-----------------|-----------------|-------------|--------0--------------|
D|-----------------|-----------------|-----------1-|-----2-----------------|
A|------0--3--0----|------0--3--0-1--|--3-3--------|--3--------3-----------|
E|--1-1---------3--|--1-1------------|------0--3---|-------------0-1-------|

G|-----------------|---------------|--------------|--------------|
D|-----------------|---------------|-----2--3--4--|--5-----------|
A|------2--5-------|------0--1--2--|--3-----------|--------0--2--|
E|--3-3-------3-2--|--1-1----------|--------------|-----3--------|


G|----5-3--0-------|-----------------|--5-5-3--0------------------|
D|--------------2--|--3-3-1--0-------|----------------------------|
A|--3---------3----|------------3----|------------3----3----------|
E|-----------------|--------------3--|--------------3-------------|



Добавлено: 22.10.2017
Другие материалы по этой песне:

Страница создана 07.06.2014
http://primanota.ru/freddie-king/my-feeling-for-blues-chords.htm
Привет, Гость.
Предлагаем пройти революционный курс по гитаре.
Подарок от PrimaNota.Ru, забирай!