PrimaNota.ru - самый крупный в мире бесплатный архив песенных текстов, аккордов, табулатур и нот


Freddie King - Its Too Late Shes Gone - бас-таба, видео

Регистрация Запомнить меня
Войти через:  Facebook Google Twitter Vk Yandex Mail.ru

Freddie King - Its Too Late Shes Gone - бас-таба, видео

Печатать
Просмотров: 87
Уроки эстрадного вокала в Санкт-Петербурге
-------------------------------------------------------------------------------
                        IT'S TOO LATE, SHE'S GONE - Freddie King
-------------------------------------------------------------------------------

Tuning: Standard

G|-------------|--------------|---------------------0---|-------------3-----0-----|
D|-1-----4-----|--------------|-------------3---------3-|-----------3---------3---|
A|-------------|-1------------|-1-----------------------|-1---------------------1-|
E|-------------|--------------|-------------------------|-------------------------|
                    It's too late she's gone                      It's too late

G|-------------------------|-------------------------------------------------|
D|-1---------------------0-|-1----------------------1------------1---2---3---|
A|-------------1-------3---|--------------------1--------------1-------------|
E|-------------------------|-------------------------------------------------|
  my baby's gone

G|-------------------------|-----------3-----3-1-0---|-------------------------|
D|-------------------------|---------3-------------4-|-3-----------------------|
A|-1---------------------0-|-1-----------------------|-----------------------0-|
E|-------------1-------3---|-------------------------|-------------1-----1-3---|
  Wished I had told her     She was the only one so don't say boy it's not too late

G|-------------------------|-------------------------|-----------2h3---3-0-----|
D|-------3-----------------|-------------------------|---------------------3-0-|
A|-1-----------------------|-1---------------------0-|-1-----------------------|
E|-------------------------|-------------1-------3---|-------------------------|
         It's a weak man to cry now                            So I guess I'll dry  
 
G|-------------------------|-----------------------3-|-------------------------|
D|-1---------------------0-|-1-----------1-----2-3---|-------------------------|
A|-------------1-------3---|-----------1-------------|-1---------------------0-|
E|-------------------------|-------------------------|-------------1-------3---|
  my eyes now                                          Yes I will miss her

G|-------------3---3-------|-----------------------------|
D|---------0-3-------0-1-2-|-3---------------------------|
A|-1-----------------------|---------3-3---------------0-|
E|-------------------------|-----------------------1-3---|
    more than anyone so don't say     it's not too late
 
G|-------------------------3-------3-3-------------|-------------------0-----|
D|-----------------0---3-----------------------0---|-1---/8--------------3---|
A|-1-----------------------------------1---3-------|-----------------------3-|
E|-------------------------------------------------|-------------------------|
                                            She's gone.               Lord

G|-------------------------|-------------------------|-----------------------3-|
D|-----------------------0-|-1---/8------------5-3---|-------------------0-3---|
A|-1-----------1-----1-3---|-----------------------3-|-1-----------1-----------|
E|-----------1-------------|-------------------------|-----------1-------------|
   my baby's gone      She's gone             Oh Lord my baby         she's gone   

G|-------------------------|-------------------------|
D|-1---/8------------5-3---|-------------------0-3-0-|
A|-----------------------3-|-1-----------1-----------|
E|-------------------------|-----------1-------------|
                Oh my baby's gone              Tell me   

G|-------------------------------------------------|----------------------------------------|
D|-------------------------------------------------|----------------------------------------|
A|-3-------3---------3-3---3-------3-3---3---------|----------------------------------------|
E|-----------------------------------------------1-|-1---1-------1-1---1-------1-1----------|
   why    can't    my     baby    be    here    now                                 I wonder

G|-------------------------|-------------3---3-------|-------------------------|
D|-------------3-------5-3-|---------0-3-------0-3-0-|-1---------------------0-|
A|-1-----------------------|-1-----------------------|-------------1-------3---|
E|-------------------------|-------------------------|-------------------------|
 does she love me                    I wonder does she care now Lord

G|-------------------------|-------------------------|-------------------------|
D|-1-----------1-----1-2-3-|-------------------------|---------0-3/8---8-6-----|
A|-----------1-------------|-1-----------1---------0-|-1-------------------5-6-|
E|-------------------------|---------------------1---|-------------------------|
                              I need your lovin'          more than anyone 

G|-------------------------|-------|
D|-3---3-------3---3---3---|-1-----|
A|-----------3-------3---3-|----1--|
E|-------------------------|-------|
   So don't say,  it's not too late


| /  slide up
| \  slide down
| h  hammer-on
| p  pull-off
| ~  vibrato
| +  harmonic
| x  Mute note
===============================================================================
Добавлено: 19.04.2016
Другие материалы по этой песне:
  • Аккорды и текст

Страница создана 19.04.2016
http://primanota.ru/freddie-king/its-too-late-shes-gone-chords.htm
Привет, Гость.
Предлагаем пройти революционный курс по гитаре.
Подарок от PrimaNota.Ru, забирай!