PrimaNota.ru - самый крупный в мире бесплатный архив песенных текстов, аккордов, табулатур и нот


Freddie King - Blue Shadows - бас-таба, видео

Регистрация Запомнить меня
Войти через:  Facebook Google Twitter Vk Yandex Mail.ru

Freddie King - Blue Shadows - бас-таба, видео

Печатать
Просмотров: 58
-------------------------------------------------------------------------------
                     BLUE SHADOWS - Freddie King
-------------------------------------------------------------------------------
Album: Is A Blues Master (2005)

Tuning: Standard

G|-----------7-5-5-4---7---|-------------------------|-----------7-5-4---------|
D|-------4-7---------7---7-|-----------5-3---5-3-2---|-------4-7-------7-4-5-7-|
A|-5---5-------------------|-------2-5-----5-------2-|-5---5-------------------|
E|-------------------------|-3---3-------------------|-------------------------|
                             
                            (0:14) Verse 1
G|-------------------------|-----------7-5---5-4-----|-------------------------|
D|---------7-7-----------7-|-------4-7-----------7---|-----------5-3---3-2-----|
A|-----4-7-----------4-7---|-5---5-----------------5-|-------2-5-----------3-4-|
E|-5-5-----------5-5-------|-------------------------|-3---3-------------------|
                               Blue shadows falling               since my baby went away now

G|-----------7-5---5-4-----|-----------7-5---5-4-----|-------------------------|
D|-------4-7-----------7---|-------4-7-----------7---|-----------5-3---3-2-----|
A|-5---5-----------------7-|-5---5-----------------5-|-------2-5-----------5---|
E|-------------------------|-------------------------|-3---3-----------------5-|
                                            Blue shadows falling

G|-------------------------|-----------7-5---5-4-----|-----------7-5---5-4-----|
D|-----------5-3---3-2-----|-------4-7-----------7---|-------4-7-----------5-7-|
A|-------2-5-----------3-4-|-5---5-----------------7-|-5---5-------------------|
E|-3---3-------------------|-------------------------|-------------------------|
       since my baby went away

G|-------------------------|-------------------------|-----------7-------4-5-7-|
D|-----------7-5---5-4-----|-----------5-3---3-2-----|-------4-7---5---5-------|
A|-------4-7-----------7---|-------2-5-----------3-4-|-5---5-------------------|
E|-5---5-----------------5-|-3---3-------------------|-------------------------|
  You know the blues                 every night
           is my companion                and every day

                            (0:54) Verse 2
G|-------------------------|-----------7-5---5-4-----|-------------------------|
D|-------7-7-7-------7-----|-------4-7-----------7---|-----------5-3---3-2-----|
A|-5---5-----------------4-|-5---5-----------------5-|-------2-5-----------3-4-|
E|-------------5-5-5---5---|-------------------------|-3---3-------------------|
                        Yeah the blues walked in this morning    when my baby said goodbye  

G|-----------7-5---5-4-----|-------------------------------------------|
D|-------4-7-----------7---|-------------------------------------------|
A|-5---5-----------------7-|-5-----5-5--3-----3-3--2-----2-2-----------|
E|-------------------------|----------------------------------5--5--5--|

G|-------------------------|-------------------------|-----------7-5---5-4-----|
D|-----------5-3---3-2-----|-----------5-3---3-2-5-3-|-------4-7-----------7---|
A|-------2-5-----------5---|-------2-5---------------|-5---5-----------------7-|
E|-3---3-----------------5-|-3---3-------------------|-------------------------|
   You know the blues walked       when my baby 
       in this morning now               said goodbye

G|---------------------7---5-------5-5---4-----------|-------------------------|
D|-------------4---7-------------------------7-------|-----------7-5---5-4-----|
A|-5-------5-------------------------------------7---|-------4-7-----------7---|
E|---------------------------------------------------|-5---5-----------------5-|
                                                       I wished I could change her mind

G|-------------------------|-----------7-5---------7-|-------------------------|
D|-----------5-3-2---5-3-2-|-------4-7-------5-6-7---|-------4-7---------------|
A|-------2-5-------5-------|-5---5-------------------|-5---5-----------------4-|
E|-3---3-------------------|-------------------------|-----------5-5-5-5-5-5---|
         but it's no use 
              for me to try     
      
  (1:34) Guitar Solo     
G|-----------7-5---5-4-----|-------------------------|-----------7-5---5-4-----|
D|-------4-7-----------7---|-------------------------|-------4-7-----------7---|
A|-5---5-----------------5-|-------2-2-2-3---3-4---4-|-5---5-----------------7-|
E|-------------------------|-3---3-------------------|-------------------------|

G|------------------------------------------------------|-------------------------|
D|-----------------------------------------------2------|-----------5-3---3-2-----|
A|-5-------5-5---3-------3-3---2-------2-2---0-------0--|-------2-5-----------5---|
E|------------------------------------------------------|-3---3-----------------5-|

G|-------------------------|-----------7-5---5-4-----|-----------4-5---5-4-----|
D|-----------5-3---3-2-----|-------4-7-----------7---|-------4-7-----------5-7-|
A|-------2-5-----------3-4-|-5---5-----------------7-|-5---5-------------------|
E|-3---3-------------------|-------------------------|-------------------------|

G|-------------------------|-------------------------|-----------7-------4-5-7-|
D|-----------7-5---5-4-----|-----------5-3---3-2-----|-------4-7---5---5-------|
A|-------4-7-----------7---|-------2-5-----------3-4-|-5---5-------------------|
E|-5---5-----------------5-|-3---3-------------------|-------------------------|

                             (2:14) Verse 3
G|-------------------------|-----------7-5---5-4-----|-------------------------|
D|-------4-7-7-7-----------|-------4-7-----------7---|-----------5-3---3-2-----|
A|-5---5-----------------4-|-5---5-----------------5-|-------2-5-----------3-4-|
E|---------------5-5-5-----|-------------------------|-3---3-------------------|
                            Yes, talk to me baby                if it's just by telephone

G|-----------7-5---5-4-----|------------------------------------------------------|
D|-------4-7-----------7---|-----------------------------------------------2------|
A|-5---5-----------------7-|-5-------5-5---3-------3-3---2-------2-2---0-------0--|
E|-------------------------|------------------------------------------------------|

G|-------------------------|-------------------------|-----------7-5---5-4-----|
D|-----------5-3---3-2-----|-----------5-3---3-2-----|-------4-7-----------7---|
A|-------2-5-----------5---|-------2-5-----------3-4-|-5---5-----------------5-|
E|-3---3-----------------5-|-3---3-------------------|-------------------------|
  Just talk to me baby         if it's just by telephone

G|-----------7---5-4---7---|-------------------------|-------------------------|
D|-------4-7---------7---7-|-----------7-5---5-4-----|-----------5-3---3-2-----|
A|-5---5-------------------|-------4-7-----------7---|-------2-5-----------3-4-|
E|-------------------------|-5---5-----------------5-|-3---3-------------------|
                             I wanna tell you                 and how it feels 
                                  how I miss you baby                  to be alone
                                                     
                                                       (2:56) Verse 4
G|-----------7-----4-5-6-7-|-------------------------|-----------7-5---5-4-----|
D|-------4-7-----5---------|-----4-5-7-7-7-7-7-------|-------4-7-----------7---|
A|-5---5-------------------|---5---------------------|-5---5-----------------5-|
E|-------------------------|-------------------5-5-7-|-------------------------|
                                                      Now, if you got a good woman

G|-------------------------|-----------7-5---5-4-----|-----------7-5-4---7-----|
D|-----------5-3---3-2-----|-------4-7-----------7---|-------4-7-------7-------|
A|-------2-5-----------3-4-|-5---5-----------------7-|-5---5-------------------|
E|-3---3-------------------|-------------------------|---------------------3-5-|
        You better take 
              my advice now

G|-------------------------|-------------------------|-----------7-5---5-4-----|
D|-----------5-3---3-2-----|-----------5-3---3-2-----|-------4-7-----------7---|
A|-------2-5-----------5---|-------2-5-----------3-4-|-5---5-----------------7-|
E|-----3-----------------5-|-3---3-------------------|-------------------------|
    Yes, if you've got           You'd better
               a good woman            take my advice

G|-----------7---7-5-4-----|-------------------------|-------------------------|
D|-------4-7-----------5-7-|-----------7-5---5-4-----|-----------5-3---3-2-----|
A|-5---5-------------------|-------4-7-----------7---|-------2-5-----------3-4-|
E|-------------------------|-5---5-----------------5-|-3---3-------------------|
                Yes, you'd better treat her like an angel   and keep her home at any price
 
G|-------------------------|-2-----------------------------------------------|
D|---------4---5-----6-----|-------------------------------------------------|
A|-5---5-------------------|---------5-------5-5-5-5-5-5-5-5-5-5-5-5-5-5-5-5-| 
E|-------------------------|-------------------------------------------------|
 



| /  slide up
| \  slide down
| h  hammer-on
| p  pull-off
| ~  vibrato
| +  harmonic
| x  Mute note
===============================================================================
Добавлено: 19.04.2016
Другие материалы по этой песне:
  • Аккорды и текст

Страница создана 19.04.2016
http://primanota.ru/freddie-king/blue-shadows-chords.htm
Привет, Гость.
Предлагаем пройти революционный курс по гитаре.
Подарок от PrimaNota.Ru, забирай!