PrimaNota.ru - самый крупный в мире бесплатный архив песенных текстов, аккордов, табулатур и нот


Freddie King - The Stumble - таба, бас-таба, видео

Регистрация Запомнить меня
Войти через:  Facebook Google Twitter Vk Yandex Mail.ru

Freddie King - The Stumble - таба, бас-таба, видео

Печатать
Просмотров: 146
Уроки эстрадного вокала в Санкт-Петербурге
THE STUMBLE

As recorded by Freddie King
(From the 1961 Album LET'S HIDE AWAY AND DANCE AWAY WITH FREDDY KING)

Music by Freddie King & Sonny Thompson

Transcribed by Slowhand


Gtr I (E A D G B E) - 'Freddie King - Electric Guitar w/ light distortion'
Gtr II (E A D G B E) - 'Fred Jordan - Electric Guitar'


  Q=122(8=s8)
  N.C.               A5
 4/4
  Gtr I
            |-3--|
  H    E E  E E  E   q   Q   H
|------------------|-----------------|
|------------------|-----------------|
|-------------9-11-|-9---------------|
|--------9s11------|-----------------|
|------------------|-----------------|
|------------------|-----------------|
|
| Gtr II
|                    PM---------------
| W                  E E E E E E E E
|------------------|-----------------|
|------------------|-----------------|
|------------------|-----------------|
|------------------|-2-2-4-2-2-2-4-2-|
|------------------|-0-0-0-0-0-0-0-0-|
|------------------|-----------------|


                                             E5
                                                             ~
                |3-|            |---3----|
  E  E  E  E    E  Q        a  +E   E    E    E  E Q   E E E E
|------------------------------------------|--------------------|
|------------------------------------------|--------------------|
|------12-14b16---14b16====14r(14)p12------|-12------------8-7--|
|---14----------------------------------14-|----14-------7-7-6--|
|------------------------------------------|-------------8-8-7--|
|------------------------------------------|--------------------|
|
|------------------------------------------------------------|
| E  E  E  E    E        E      E     E       E  E E E E E E E
|------------------------------------------|--------------------|
|------------------------------------------|--------------------|
|------------------------------------------|--------------------|
|-2--2--4--2----2--------2------4-----2----|--------------------|
|-0--0--0--0----0--------0------0-----0----|--2--2-4-2-2-2-4-2--|
|------------------------------------------|--0--0-0-0-0-0-0-0--|


                            A5
   ~~~
                 |--3---|
  +Q    Q   E E  E E    E   q   E  E Q   E  e
|-------------------------|-------------------|
|-------------------------|-------12-------12-|
|-(7)--------------9---11-|-9-----12-------12-|
|-(6)---------9s11--------|-------11-------11-|
|-(7)---------------------|-------12-------12-|
|-------------------------|-------------------|
|
|  PM------------------------------------------
|  E  E E E E E  E   E      E E E  E E E E  E
|-------------------------|-------------------|
|-------------------------|-------------------|
|-------------------------|-------------------|
|-------------------------|-2-2-4--2-2-2-4--2-|
|--2--2-4-2-2-2--4---2----|-0-0-0--0-0-0-0--0-|
|--0--0-0-0-0-0--0---0----|-------------------|


                                B5
             |-3--|   |--3--|
  E E E a  E E a  Q   E E   E   E E +H        E E
|-----------------------------|-------------------|
|-----------------------------|-------------------|
|-----7-9s11---9s11---9p7-----|-7-----------------|
|---9-----------------------9-|---9-(9)-------8-9-|
|-----------------------------|-------------------|
|-----------------------------|-------------------|
|
|-----------------------------------------------|
| E E E    E E      E E   E     E E  E  E E E E E
|-----------------------------|-------------------|
|-----------------------------|-------------------|
|-----------------------------|-------------------|
|-2-2-4----2-2------2-4---2---|-4-4--6--4-4-4-6-4-|
|-0-0-0----0-0------0-0---0---|-2-2--2--2-2-2-2-2-|
|-----------------------------|-------------------|


                         E5
  +Q     Q   E  E  q     E  E     q   Q        S  S E
|----------------------|------------------------------|
|----------------------|------------------------------|
|----------------------|---14b16-14--12b12.5----------|
|-(9)\---------14-14---|----------------------14p12---|
|----------------------|------------------------------|
|----------------------|------------------------------|
|
|  PM--------------------------------------------------
|  E   E E E E  E  E E   q        Q   H
|----------------------|------------------------------|
|----------------------|------------------------------|
|----------------------|------------------------------|
|--4---4-6-4-4--4--6-4-|------------------------------|
|--2---2-2-2-2--2--2-2-|-2----------------------------|
|----------------------|-0----------------------------|


                               A5
  E  E     q   E       E  q     Q      Q      Q      Q
|----------------------------|-----------------------------|
|----------------------------|-----------------------------|
|---14b16-14--12b12.5----12--|-14b15--14b15--14b15--14b15--|
|---------------------14-----|-----------------------------|
|----------------------------|-----------------------------|
|----------------------------|-----------------------------|
|
|--------------------------------------------|
| q        Q   H                q      Q      q      Q
|----------------------------|-----------------------------|
|----------------------------|-----------------------------|
|----------------------------|-----------------------------|
|----------------------------|--2-------------2------------|
|-2--------------------------|--0-------------0------------|
|-0--------------------------|-----------------------------|


  Bbb5                                E5/B     C#5
            |--3--|
   E     E  E  E  E  E       E  E E   E  E E E  E E E  E
|-----------------------------------|---12-9-7-/4-2-0-12-|
|-----------------------------------|--------------------|
|-14b15-12-14p12----12b12.5---------|---13-9-7-/4-2-0-13-|
|----------------14---------14-12---|--------------------|
|-----------------------------------|--------------------|
|-----------------------------------|--------------------|
|
|  PM-----------------------------------------------------
|  Q        Q        Q          Q     E  E E E  E E E  E
|-----------------------------------|--------------------|
|-----------------------------------|--------------------|
|-----------------------------------|--------------------|
|--2--------2--------2----------2---|-2--2-2-2--6-6-6--6-|
|--1--------1--------1----------1---|-2--2-2-2--4-4-4--4-|
|-----------------------------------|--------------------|


  F#5      B5          E5        A5
                                 |--3--| |--3--|
  E E  E E E E E a E    Q    E E E E   E E E   E
|-9-7-/4-2-0-2-0-----|--0----------0--------------|
|--------------------|-------3---------3----------|
|-9-7-/4-2-0-2-0-0h1-|-(1)-----2s4-------2p0------|
|--------------------|-------------------------2--|
|--------------------|----------------------------|
|--------------------|----------------------------|
|
|--------------------------------------------|
| E E  E E E E E   E    E  E E E E   E   E   E
|--------------------|----------------------------|
|--------------------|----------------------------|
|--------------------|----------------------------|
|----------4-4-4---4-|-----------2---2---2---2----|
|-4-4--4-4-2-2-2---2-|--2--2-2-2-0---0---0---0----|
|-2-2--2-2-----------|--0--0-0-0------------------|


  E5                     A5
               |-3--|
  Q   q   Q    E E  E    q   E  e Q   E  e
|-0-------------------||----------------12-|
|-----3---------------||-------12-------12-|
|----------------9-11-||-9-----12-------12-|
|------------/11------||-------11----------|
|---------------------||-------------------|
|---------------------||-------------------|
|
| PM----|                PM-----------------
| E E E E H              E E E  E E E E  E
|---------------------||-------------------|
|---------------------||-------------------|
|---------------------||-------------------|
|---------------------||-2-2-4--2-2-2-4--2-|
|-2-2-2-2-2-----------||-0-0-0--0-0-0-0--0-|
|-0-0-0-0-0-----------||-------------------|


                                       E5
                                                       PM|
                |3-|       |---3---|
  E  E  E  E    E  Q       E  E    E    E       E  E E E E E E
|------------------------------------|--------------------------|
|------------------------------------|-----------------------7--|
|------12-14b16---14b16---14p12------|-12b12.5-------------8-7--|
|---14----------------------------14-|---------14-12-------7-6--|
|------------------------------------|---------------------8-7--|
|------------------------------------|-----------------7-7------|
|
|------------------------------------------------------------|
| E  E  E  E    E       E  E    E       E       E  E E E E E E
|------------------------------------|--------------------------|
|------------------------------------|--------------------------|
|------------------------------------|--------------------------|
|-2--2--4--2----2-------2--4----2----|--------------------------|
|-0--0--0--0----0-------0--0----0----|--2-------2--4-2-2-2-4-2--|
|------------------------------------|--0-------0--0-0-0-0-0-0--|


                            A5
                 |--3---|
  +H        E E  E E    E   q   E  e Q   E  e
|-------------------------|-------12-------12-|
|-(7)---------------------|-------12-------12-|
|-(7)--------------9---11-|-9-----12-------12-|
|-(6)---------9s11--------|-------------------|
|-(7)---------------------|-------------------|
|-------------------------|-------------------|
|
|  PM------------------------------------------
|  E  E E E E E  E   E      E E E  E E E E  E
|-------------------------|-------------------|
|-------------------------|-------------------|
|-------------------------|-------------------|
|-------------------------|-2-2-4--2-2-2-4--2-|
|--2--2-4-2-2-2--4---2----|-0-0-0--0-0-0-0--0-|
|--0--0-0-0-0-0--0---0----|-------------------|


                                B5
             |-3--|   |--3--|
  E E E a  E E a  Q   E E   E   E Q.     +E  E E E
|-----------------------------|--------------------|
|-----------------------------|--------------------|
|-----7-9s11---9s11---9p7-----|-7----------------7-|
|---9-----------------------9-|---9------(9)-9-8-9-|
|-----------------------------|--------------------|
|-----------------------------|--------------------|
|
|------------------------------------------------|
| E E E    E E      E E   E     E E  E E  E  E E E
|-----------------------------|--------------------|
|-----------------------------|--------------------|
|-----------------------------|--------------------|
|-2-2-4----2-2------2-4---2---|-4-4--6-4--4--4-6-4-|
|-0-0-0----0-0------0-0---0---|-2-2--2-2--2--2-2-2-|
|-----------------------------|--------------------|


                       E5
  +Q     Q   E E E E   Q   Q       Q   E  E
|--------------------|----------------------|
|--------------------|----15b17===15--15-15r|
|-(7)\-------9-9-9---|----------------------|
|-(9)\---------------|----------------------|
|--------------------|----------------------|
|--------------------|----------------------|
|
|  PM----------------------------------------
|  E   E E E E E E E   q   Q       H
|--------------------|----------------------|
|--------------------|----------------------|
|--------------------|----------------------|
|--4---4-6-4-4-4-6-4-|----------------------|
|--2---2-2-2-2-2-2-2-|-2--------------------|
|--------------------|-0--------------------|


                                      A5
                                               |--3--|
   +E   E  E  E     +E   E  E  E       +E   E  E. S  E  E  E  E  E
|-----------------------------------|------------------------------|
|-(15)-12---------------------------|------------------------------|
|---------14-14b16r(14)-12----14b16r|=(14)-12-14p12----12----12-14-|
|--------------------------14-------|---------------14----14-------|
|-----------------------------------|------------------------------|
|-----------------------------------|------------------------------|
|
|------------------------------------------------------|
|   q      Q         H                  q      Q        q     Q
|-----------------------------------|------------------------------|
|-----------------------------------|------------------------------|
|-----------------------------------|------------------------------|
|-----------------------------------|---2---------------2----------|
|---2-------------------------------|---0---------------0----------|
|---0-------------------------------|------------------------------|


  Bbb5                               E5/B     C#5
            |--3--|
   E     E  E. S  E  Q      S  S E   E  E E E  E E E  E
|----------------------------------|---12-9-7-/4-2-0-12-|
|----------------------------------|--------------------|
|-14b16-12-14p12----12b14----------|---13-9-7-/4-2-0-13-|
|----------------14--------14p12---|--------------------|
|----------------------------------|--------------------|
|----------------------------------|--------------------|
|
|  PM----------------------------------------------------
|  Q        Q        Q      Q        E  E E E  E E E  E
|----------------------------------|--------------------|
|----------------------------------|--------------------|
|----------------------------------|--------------------|
|--2--------2--------2------2------|-2--2-2-2--6-6-6--6-|
|--1--------1--------1------1------|-2--2-2-2--4-4-4--4-|
|----------------------------------|--------------------|


  F#5      B5          E5          A5
                                 |--3--| |--3--|
  E E  E E E E E a E    Q    E E E E   E E E   E
|-9-7-/4-2-0-2-0-----|--0----------0-------------|
|--------------------|-------3---------3---------|
|-9-7-/4-2-0-2-0-0h1-|-(1)-----2s4-------2p0-----|
|--------------------|-------------------------2-|
|--------------------|---------------------------|
|--------------------|---------------------------|
|
|--------------------------------------------|
| E E  E E E E E   E    E  E E E E   E   E   E
|--------------------|---------------------------|
|--------------------|---------------------------|
|--------------------|---------------------------|
|----------4-4-4---4-|-----------2---2---2---2---|
|-4-4--4-4-2-2-2---2-|--2--2-2-2-0---0---0---0---|
|-2-2--2-2-----------|--0--0-0-0-----------------|


  E5                 A5
                     ~
  E E E E E E E E    W
|-0---------7-7---||-----------------|
|-----0-----8-8-8-||-----------------|
|-------2---------||-9---------------|
|-----------------||-----------------|
|---2-------------||-----------------|
|-----------------||-----------------|
|
| PM----|            PM---------------
| E E E E H          E E E E E E E E
|-----------------||-----------------|
|-----------------||-----------------|
|-----------------||-----------------|
|-----------------||-2-2-4-2-2-2-4-2-|
|-2-2-2-2-2-------||-0-0-0-0-0-0-0-0-|
|-0-0-0-0-0-------||-----------------|


                             E5
            |3-|
  E E  E E +E  Q       E E   H.           +E   E
|-----10-9-(9)---------7---|---------------------|
|---8----------8b8.5-----8-|------------------/8-|
|--------------------------|-9------------(9)----|
|--------------------------|---------------------|
|--------------------------|---------------------|
|--------------------------|---------------------|
|
|---------------------------------------------|
| E E  E E  E        E E E   E  E E E E E  E   E
|--------------------------|---------------------|
|--------------------------|---------------------|
|--------------------------|---------------------|
|-2-2--4-2--2--------2-4-2-|---------------------|
|-0-0--0-0--0--------0-0-0-|-2--2-4-2-2-2--4---2-|
|--------------------------|-0--0-0-0-0-0--0---0-|


   |--3---|  |--3---| |--3--| |---3----|
  +E  E   E +E  E   E E E   E E  E     E
|-----7---------7-------7-----7\---------|
|-(8)-----8-(8)-----8-8-----8------------|
|----------------------------------------|
|------------------------------------/11-|
|----------------------------------------|
|----------------------------------------|
|
|  PM-------------------------------------
|  E    E    E    E   E   E   E    E
|----------------------------------------|
|----------------------------------------|
|----------------------------------------|
|----------------------------------------|
|--2----2----4----2---2---2---4----2-----|
|--0----0----0----0---0---0---0----0-----|


  A5
                     |--3--|      |3-|       |--3--|
  H.           E E   E E   E E E +E  Q       E E   E
|------------------|-------7-5-5-(5)-3b3.5---0--------|
|------------------|---5------------------------------|
|-9--------------4s|=6--------------------------------|
|------------------|----------------------------------|
|------------------|-------------------------------0--|
|------------------|----------------------------------|
|
|------------------------------------------------|
| E  E E E E E E E   E   E   E E  E        E E   E
|------------------|----------------------------------|
|------------------|----------------------------------|
|------------------|----------------------------------|
|-2--2-4-2-2-2-4-2-|-2---2---4-2--2--------2-4---2----|
|-0--0-0-0-0-0-0-0-|-0---0---0-0--0--------0-0---0----|
|------------------|----------------------------------|


  B5
  |--3--| |--3--| |--3--| |--3--|   |--3--| |--3--|        |---3---|
  E E   E E E   E E E   E E E   E   E E   E E E   E E   E  E  E    E
|---------------------------------|-------------------/10-10-10---10-|
|---------------------------------|-------------------/12-12-12---12-|
|---------------------------------|----------------------------------|
|---------------------------------|----------------------------------|
|-0h1h==2-0h1h==2-0h1h==2-0h1h==2-|-0h1h==2-0h1h==2------------------|
|---------------------------------|----------------------------------|
|
| PM------------------------------------------------------------------
| E   E   E   E   E   E   E   E     E   E   E   E   E   E  E    E
|---------------------------------|----------------------------------|
|---------------------------------|----------------------------------|
|---------------------------------|----------------------------------|
|-4---4---6---4---4---4---6---4---|-4---4---6---4---4---4--6----4----|
|-2---2---2---2---2---2---2---2---|-2---2---2---2---2---2--2----2----|
|---------------------------------|----------------------------------|


  E5
    |---3---|   |---3---|   |---3---|   |---3---|
    E  E    E   E  E    E   E  E    E   E  E    E
|-/10-10---10-/10-10---10-/10-10---10-/10-10---10--|
|-/12-12---12-/12-12---12-/12-12---12-/12-12---12--|
|--------------------------------------------------|
|--------------------------------------------------|
|--------------------------------------------------|
|--------------------------------------------------|
|
|--------------------------------------------|
|   E    E      E    E      E    E      E    E
|--------------------------------------------------|
|--------------------------------------------------|
|--------------------------------------------------|
|--------------------------------------------------|
|---2----2------4----2------2----2------4----2-----|
|---0----0------0----0------0----0------0----0-----|


    |---3---|   |---3---|   |---3---|   |---3---|
    E  E    E   E  E    E   E  E    E   E  E    E
|-/10-10---10-/10-10---10-/10-10---10-/10-10---10-|
|-/12-12---12-/12-12---12-/12-12---12-/12-12---12-|
|-------------------------------------------------|
|-------------------------------------------------|
|-------------------------------------------------|
|-------------------------------------------------|
|
|   PM---------------------------------------------
|   E    E      E    E      E    E      E    E
|-------------------------------------------------|
|-------------------------------------------------|
|-------------------------------------------------|
|-------------------------------------------------|
|---2----2------4----2------2----2------4----2----|
|---0----0------0----0------0----0------0----0----|


  A5                                                Bbb5
    |---3---|   |---3---|   |---3---|   |---3---|    |--3--|  |--3--|
    E  E    E   E  E    E   E  E    E   E  E    E    E  E  E  E  E  E E     E Q
|-/10-10---10-/10-10---10-/10-10---10-/10-10---10-|-10-10-10--9--9--9-7b7.5-7------|
|-/12-12---12-/12-12---12-/12-12---12-/12-12---12-|-12-12-12-10-10-10-8b8.5---8\---|
|-------------------------------------------------|--------------------------------|
|-------------------------------------------------|--------------------------------|
|-------------------------------------------------|--------------------------------|
|-------------------------------------------------|--------------------------------|
|
|-----------------------------------------------------------------------------|
|   E    E      E    E      E    E      E    E       Q        Q       Q       Q
|-------------------------------------------------|--------------------------------|
|-------------------------------------------------|--------------------------------|
|-------------------------------------------------|--------------------------------|
|---2----2------4----2------2----2------4----2----|--2--------2-------2-------2----|
|---0----0------0----0------0----0------0----0----|--1--------1-------1-------1----|
|-------------------------------------------------|--------------------------------|


  E5/B          C#5         F#5         B5
                                         |---3---| |--3--|
  Q     E  E  E E E     E    E E E E    +E   E   E E E   E
|---------10----9---------|----7-5-3b4==(3)r-0-------------|
|-----/12----10---8b8.5---|----------------------0---------|
|-----------------------9-|-/6---------------------2p0-----|
|-------------------------|------------------------------2-|
|-------------------------|--------------------------------|
|-------------------------|--------------------------------|
|
| PM--------------------------------------------------------
| E E   E  E  E E E     E    E E E E     E     E   E   E
|-------------------------|--------------------------------|
|-------------------------|--------------------------------|
|-------------------------|--------------------------------|
|-2-2---2--2--6-6-6-----6-|--------------4-----4---4---4---|
|-2-2---2--2--4-4-4-----4-|--4-4-4-4-----2-----2---2---2---|
|-------------------------|--2-2-2-2-----------------------|


  E5        A5                E5
            |--3--| |--3--|                      |--3--|
   Q    E E E E   E E E   E    E   E  E e E  E   E  E  E
|--0----------0-------------|--0--------0---10-/10-10-10--||
|-------3---------3---------|-----(0)-3-0---12-/12-12-12--||
|---------2s4-------2p0-----|-----------------------------||
|-(2)---------------------2-|-(2)-------------------------||
|---------------------------|-----------------------------||
|---------------------------|-----------------------------||
|
|---------------------------------------|
|  E  E E E E   E   E   E      E   E  E E H
|---------------------------|-----------------------------||
|---------------------------|-----------------------------||
|---------------------------|-----------------------------||
|-----------2---2---2---2---|-----------------------------||
|--2--2-2-2-0---0---0---0---|--2---2--2-2-2---------------||
|--0--0-0-0-----------------|--0---0--0-0-0---------------||


  A5
        ~~~~~~~
    E   E  +H        E E   +E   E E E      +E   E E     E
|-/10-/10-(10)-----------|-----10-9-------------7-------7-|
|-/12-/12-(12)---------8-|-(8)------8b8.5==(8)r---8b8.5---|
|------------------------|--------------------------------|
|------------------------|--------------------------------|
|------------------------|--------------------------------|
|------------------------|--------------------------------|
|
|   PM-----------------------------------------------------
|   E   E   E  E E E E E    E   E E E       E   E E     E
|------------------------|--------------------------------|
|------------------------|--------------------------------|
|------------------------|--------------------------------|
|---2---2---4--2-2-2-4-2-|--2---2-4-2-------2---2-4-----2-|
|---0---0---0--0-0-0-0-0-|--0---0-0-0-------0---0-0-----0-|
|------------------------|--------------------------------|


  E5
                        |3-|
  H       +E  E  E E   +E  Q       E E +E      E E E
|---------------10-9-|-(9)---------7-----------7-----|
|-------------8------|-----8b8.5-----8-(8)b8.5---8---|
|-9-------(9)--------|-----------------------------0-|
|--------------------|-------------------------------|
|--------------------|-------------------------------|
|--------------------|-------------------------------|
|
|--------------------------------------------------|
| E E E E  E  E  E E    E        E E E  E      E E E
|--------------------|-------------------------------|
|--------------------|-------------------------------|
|--------------------|-------------------------------|
|--------------------|-------------------------------|
|-2-2-4-2--2--2--4-2-|--2--------2-4-2--2------2-4-2-|
|-0-0-0-0--0--0--0-0-|--0--------0-0-0--0------0-0-0-|


  A5
                    |--3---|   |--3--| |--3--| |--3--|
  a E Q.     +E  E +E  E   E   E E   E E E   E E E   E a Q
|----------------------------|--------------------------------|
|-----5------(5)-----------5-|-------5-------5-------5--------|
|-4s6------------5-(5)h6-----|-5h6-----5h6-----5h6-----5h6\---|
|----------------------------|--------------------------------|
|----------------------------|--------------------------------|
|----------------------------|--------------------------------|
|
|   PM---------------------------------------------------------
|   E E  E E  E  E  E    E     E   E   E   E   E   E     E  E
|----------------------------|--------------------------------|
|----------------------------|--------------------------------|
|----------------------------|--------------------------------|
|---2-2--4-2--2--2--4----2---|-2---2---4---2---2---2-----4--2-|
|---0-0--0-0--0--0--0----0---|-0---0---0---0---0---0-----0--0-|
|----------------------------|--------------------------------|


  B5
  |--3--| |--3--| |--3--| |--3--|
  E E   E E E   E E E   E E E   E
|----------------------------------|
|----------------------------------|
|----------------------------------|
|----------------------------------|
|-0-1---2-0-1---2-0-1---2-0-1---2--|
|----------------------------------|
|
|-----------------------------|
| E   E   E   E   E   E   E   E
|----------------------------------|
|----------------------------------|
|----------------------------------|
|-4---4---4---4---4---4---4---4----|
|-2---2---2---2---2---2---2---2----|
|----------------------------------|


  |--3--| |--3--|        |---3---|
  E E   E E E   E E  E   E  E    E
|----------------------------------|
|--------------------------12---14-|
|-------------------(9)s13---------|
|----------------------------------|
|-0-1---2-0-1---2-2----------------|
|----------------------------------|
|
| PM--------------------------------
| E   E   E   E   E  E   E    E
|----------------------------------|
|----------------------------------|
|----------------------------------|
|-4---4---4---4---4--4---4----4----|
|-2---2---2---2---2--2---2----2----|
|----------------------------------|


  E5
                 ~~~~~~~
                                                       |-3-|
   E  E  E       E  +Q     q          E  E  E      E  +E   Q    E  E
|-12--------------------------------|---------------------------------|
|-----------------------------------|---------------------------------|
|-------12b12.5-----------12b12.5---|------14b16==14-(14)-14---14-14--|
|----14---------14-(14)-------------|---14----------------------------|
|-----------------------------------|---------------------------------|
|-----------------------------------|---------------------------------|
|
|-----------------------------------------------------------------|
|  E  E  E       E   E  E  E      E   E  E  E      E   E     E  E  E
|-----------------------------------|---------------------------------|
|-----------------------------------|---------------------------------|
|-----------------------------------|---------------------------------|
|-----------------------------------|---------------------------------|
|--2--2--4-------2---2--2--4------2-|-2--2--4------2---2-----2--4--2--|
|--0--0--0-------0---0--0--0------0-|-0--0--0------0---0-----0--0--0--|


  A5                                   Bbb5
    |-3-|                    |--3--|
   +E   Q    Q    a  +E   E  E. S  E    E  E  E  E  Q   E  E
|------------------------------------|-----------------------|
|------------------------------------|-----------------------|
|-(14)-14---14---14r(14)-12-14p12----|-12-14-12----14-----12-|
|---------------------------------14-|----------14-----14----|
|------------------------------------|-----------------------|
|------------------------------------|-----------------------|
|
|   PM--------------------------------------------------------
|   E     E  E E      E   E  E  E       Q     Q     Q   Q
|------------------------------------|-----------------------|
|------------------------------------|-----------------------|
|------------------------------------|-----------------------|
|---2-----2--4-2------2---2--4--2----|--2-----2-----2---2----|
|---0-----0--0-0------0---0--0--0----|--1-----1-----1---1----|
|------------------------------------|-----------------------|


  E5/B               C#5
               ~~~~~~~~~~~
   E     E  E  E      +Q     a  +E   E
|----------12--------------------------|
|-------12----15b17==(15)---15r(15)-12-|
|-14b16--------------------------------|
|--------------------------------------|
|--------------------------------------|
|--------------------------------------|
|
|-----------------------------------|
|  E     E  E  E       E  E      E   E
|--------------------------------------|
|--------------------------------------|
|--------------------------------------|
|--2-----2--2--2-------6--6------6---6-|
|--2-----2--2--2-------4--4------4---4-|
|--------------------------------------|


  F#5                   B5
                                  ~~~
   E     E  E      +E    E  E  E  E
|-----------------------------------|
|-----------------------------------|
|-14b16-12-14b16==(14)r-12-14-12----|
|--------------------------------14-|
|-----------------------------------|
|-----------------------------------|
|
|  PM--------------------------------
|  E     E  E       E    E  E  E  E
|-----------------------------------|
|-----------------------------------|
|-----------------------------------|
|------------------------4--4--4--4-|
|--4-----4--4-------4----2--2--2--2-|
|--2-----2--2-------2---------------|


  E5              A5              E5
 ~~~~~~
                                                       |-3--|
   +Q     E  E  a  E  E  E   E     a  E  E  E  E  E E  E E  E
|-------------------------------|-----------------------------||
|-----------------12----14------|----12-----------------------||
|--------------12h13----14------|-12h13------------------9-11-||
|-(14)---14-14-------14----(14)-|-------14-12-------9s11------||
|-------------------------------|-------------14\-------------||
|-------------------------------|-----------------------------||
|
|---------------------------------------------|
|   E  E  E  E     E  E  E   E        E  E  E  E  H
|-------------------------------|-----------------------------||
|-------------------------------|-----------------------------||
|-------------------------------|-----------------------------||
|------------------2--2--2---2--|-----------------------------||
|---2--2--2--2-----0--0--0---0--|-----2--2--2--2--2-----------||
|---0--0--0--0------------------|-----0--0--0--0--0-----------||


  A5
                                    |3-|       |---3---|
  q   E  e Q   E  e   E  E  E  E    E  Q       E  E    E
|----------------12-|------------------------------------|
|-------12-------12-|------------------------------------|
|-9-----12-------12-|------12-14b16---14b16---14p12------|
|-------11----------|---14----------------------------14-|
|-------------------|------------------------------------|
|-------------------|------------------------------------|
|
| PM------------------------------------------------------
| E E E  E E E E  E   E  E  E  E    E       E  E    E
|-------------------|------------------------------------|
|-------------------|------------------------------------|
|-------------------|------------------------------------|
|-2-2-4--2-2-2-4--2-|-2--2--4--2----2-------2--4----2----|
|-0-0-0--0-0-0-0--0-|-0--0--0--0----0-------0--0----0----|
|-------------------|------------------------------------|


  E5
                  PM|
                                           |--3---|
   E       E  E E E E E E   +H        E E  E E    E
|-------------------------|-------------------------|
|-----------------------7-|-(7)---------------------|
|-12b12.5-------------8-7-|-(7)--------------9---11-|
|---------14-12-------7-6-|-(6)---------9s11--------|
|---------------------8-7-|-(7)---------------------|
|-----------------7-7-----|-------------------------|
|
|----------------------------------------------|
|  E       E  E E E E E E    E  E E E E E  E   E
|-------------------------|-------------------------|
|-------------------------|-------------------------|
|-------------------------|-------------------------|
|-------------------------|-------------------------|
|--2-------2--4-2-2-2-4-2-|--2--2-4-2-2-2--4---2----|
|--0-------0--0-0-0-0-0-0-|--0--0-0-0-0-0--0---0----|


  A5
                                 |-3--|   |--3--|
  q   E  e Q   E  e   E E E a  E E a  Q   E E   E
|-------12-------12-|-----------------------------|
|-------12-------12-|-----------------------------|
|-9-----12-------12-|-----7-9s11---9s11---9p7-----|
|-------------------|---9-----------------------9-|
|-------------------|-----------------------------|
|-------------------|-----------------------------|
|
| PM-----------------------------------------------
| E E E  E E E E  E   E E E    E E      E E   E
|-------------------|-----------------------------|
|-------------------|-----------------------------|
|-------------------|-----------------------------|
|-2-2-4--2-2-2-4--2-|-2-2-4----2-2------2-4---2---|
|-0-0-0--0-0-0-0--0-|-0-0-0----0-0------0-0---0---|
|-------------------|-----------------------------|


  B5
    ~~~~~~~~~~~
  E Q.     +Q    E E   +Q     Q   E E q
|--------------------|--------------------|
|--------------------|--------------------|
|-7--------------6-7-|-(7)\---------9-9---|
|---9------(9)---8-9-|-(9)\---------------|
|--------------------|--------------------|
|--------------------|--------------------|
|
|---------------------------------------|
| E E  E E  E  E E E    E   E E E E E E E
|--------------------|--------------------|
|--------------------|--------------------|
|--------------------|--------------------|
|-4-4--6-4--4--4-6-4-|--4---4-6-4-4-4-6-4-|
|-2-2--2-2--2--2-2-2-|--2---2-2-2-2-2-2-2-|
|--------------------|--------------------|


  E5
   Q       E  E  E E  E  E    +E   E  E  E  E      E  E  E
|--------------------------|-------------------------------|
|--------------------------|-------------------------------|
|-14b16===14-14-14---14-14r|=(14)-14-14-14-14b16==14-14-14-|
|--------------------------|-------------------------------|
|--------------------------|-------------------------------|
|--------------------------|-------------------------------|
|
|  PM-------------------------------------------------------
|  q       Q     H             q      Q     H
|--------------------------|-------------------------------|
|--------------------------|-------------------------------|
|--------------------------|-------------------------------|
|--------------------------|-------------------------------|
|--2-----------------------|---2---------------------------|
|--0-----------------------|---0---------------------------|


  A5
              |--3--|
   a  +E   E  E  E  E  E  E  E  E
|---------------12----------------|
|------------------12-------------|
|-14r(14)-12----------12----------|
|------------14----------14-12----|
|------------------------------14-|
|---------------------------------|
|
|---------------------|
|      q      Q        q     Q
|---------------------------------|
|---------------------------------|
|---------------------------------|
|------2---------------2----------|
|------0---------------0----------|
|---------------------------------|


  Bbb5                E5/B       C#5
                        ~~~
   E  E  E  E H         E E E  E E E  E  E
|-------------------|-/12-9-7-/4-2-0-12\-0-|
|-------------------|----------------------|
|-------------------|-/13-9-7-/4-2---13\---|
|-------------------|----------------------|
|-12-10-------------|----------------------|
|-------12-12-------|----------------------|
|
|  PM---------------------------------------
|  Q     Q    Q  Q      E E E  E E E  E  E
|-------------------|----------------------|
|-------------------|----------------------|
|-------------------|----------------------|
|--2-----2----2--2--|---2-2-2--2-6-6--6--6-|
|--1-----1----1--1--|---2-2-2--2-4-4--4--4-|
|-------------------|----------------------|


  F#5      B5           E5        A5
                                  |--3--| |--3--|
  E  E E E  E E E a E    Q    E E E E   E E E   E
|-x-/4-2-0-/4-2-0-----|--0----------0-------------|
|-x-------------------|-------3---------3---------|
|---/4-2-0-/4-2-0-0h1-|-(1)-----2s4-------2p0-----|
|---------------------|-------------------------2-|
|---------------------|---------------------------|
|---------------------|---------------------------|
|
|---------------------------------------------|
| E  E E E  E E E   E    E  E E E E   E   E   E
|---------------------|---------------------------|
|---------------------|---------------------------|
|---------------------|---------------------------|
|-----------4-4-4---4-|-----------2---2---2---2---|
|-4--4-4-4--2-2-2---2-|--2--2-2-2-0---0---0---0---|
|-2--2-2-2------------|--0--0-0-0-----------------|


  E5                          A5
                   |--3--|
   Q    Q     Q   +E  E  E    q   E  e Q   E  e
|--0-----------------------||-------------------|
|--------------------------||-------12-------12-|
|---------------------9-11-||-9-----12-------12-|
|-(2)-------/11--(11)------||-------11-------11-|
|--------------------------||-------------------|
|--------------------------||-------------------|
|
|  PM-----|                   PM-----------------
|  E  E E E   H               E E E  E E E E  E
|--------------------------||-------------------|
|--------------------------||-------------------|
|--------------------------||-------------------|
|--------------------------||-2-2-4--2-2-2-4--2-|
|--2--2-2-2---2------------||-0-0-0--0-0-0-0--0-|
|--0--0-0-0---0------------||-------------------|


                                       E5
                |3-|       |---3---|
  E  E  E  E    E  Q       E  E    E    E       E  E E E  E  E E
|------------------------------------|----------------------------|
|------------------------------------|-------------------------7--|
|------12-14b16---14b16---14p12------|-12b12.5---------------8-7--|
|---14----------------------------14-|---------14p12-----------6--|
|------------------------------------|-------------------(0)---7--|
|------------------------------------|----------------------------|
|
|--------------------------------------------------------------|
| E  E  E  E    E       E  E    E       E       E  E E E  E  E E
|------------------------------------|----------------------------|
|------------------------------------|----------------------------|
|------------------------------------|----------------------------|
|-2--2--4--2----2-------2--4----2----|----------------------------|
|-0--0--0--0----0-------0--0----0----|--2-------2--4-2-2--2--4-2--|
|------------------------------------|--0-------0--0-0-0--0--0-0--|


                            A5
                 |--3---|
  +H        E E  E E    E   q   E  e Q   E  e
|-------------------------|-------12-------12-|
|-(7)---------------------|-------12-------12-|
|-(7)--------------9---11-|-9-----12-------12-|
|-(6)---------9s11--------|-------------------|
|-(7)---------------------|-------------------|
|-------------------------|-------------------|
|
|  PM------------------------------------------
|  E  E E E E E  E   E      E E E  E E E E  E
|-------------------------|-------------------|
|-------------------------|-------------------|
|-------------------------|-------------------|
|-------------------------|-2-2-4--2-2-2-4--2-|
|--2--2-4-2-2-2--4---2----|-0-0-0--0-0-0-0--0-|
|--0--0-0-0-0-0--0---0----|-------------------|


                                B5
                                  ~~~~~~~~~~~
             |-3--|   |--3--|
  E E E a  E E a  Q   E E   E   E Q.     +Q    E E
|-----------------------------|--------------------|
|-----------------------------|--------------------|
|---7---9s11---9s11---9p7-----|-7------------------|
|-----9---------------------9-|---9------(9)---8-9-|
|-----------------------------|--------------------|
|-----------------------------|--------------------|
|
|------------------------------------------------|
| E E E    E E      E E   E     E E  E E  E  E E E
|-----------------------------|--------------------|
|-----------------------------|--------------------|
|-----------------------------|--------------------|
|-2-2-4----2-2------2-4---2---|-4-4--6-4--4--4-6-4-|
|-0-0-0----0-0------0-0---0---|-2-2--2-2--2--2-2-2-|
|-----------------------------|--------------------|


                 |---3---|
  +Q     E E E E E  E    E    E  E  E  E  E  E  E  E
|------------------12------|-------------------------|
|-----------------------12-|-------------------------|
|----------9-9-9-9---------|-12----------------------|
|-(9)\---------------------|----14-12----------------|
|--------------------------|----------14-12-10----10-|
|--------------------------|-------------------12----|
|
|  PM-------------------------------------------------
|  E   E E E E E E    E       q     Q     H
|--------------------------|-------------------------|
|--------------------------|-------------------------|
|--------------------------|-------------------------|
|--4---4-6-4-4-4-6----4----|-------------------------|
|--2---2-2-2-2-2-2----2----|--2----------------------|
|--------------------------|--0----------------------|


                                             ~~~~~~
                                                         |--3---|
   a  E  E  E  E  E  E  E  E        +E    E  Q      E  e E  a  +Q
|----------------------12--------|-------12-------------------------|
|-------------------12----15b17==|=(15)r----15b17=====15---15r(15)--|
|-------------12h13--------------|----------------------------------|
|-------12-14--------------------|----------------------------------|
|-12s14--------------------------|----------------------------------|
|--------------------------------|----------------------------------|
|
|---------------------------------------------------|
|     q     Q     H                  q       Q      q    Q
|--------------------------------|----------------------------------|
|--------------------------------|----------------------------------|
|--------------------------------|----------------------------------|
|--------------------------------|---2--------------2---------------|
|-----2--------------------------|---0--------------0---------------|
|-----0--------------------------|----------------------------------|


  Bbb5                         E5/B     C#5         F#5      B5
   E  E  E E  E       E  E E   E  E E E  E E E  E   E E  E E E E E a E
|----------------------------|---12-9-7-/4-2-0-12-|-9-7-/4-2-0-2-0-----|
|-15-12----------------------|--------------------|--------------------|
|-------14---12b12.5---------|---13-9-7-/4-2-0-13-|-9-7-/4-2-0-2-0-0h1-|
|--------------------14-12---|--------------------|--------------------|
|----------------------------|--------------------|--------------------|
|----------------------------|--------------------|--------------------|
|
|  PM----------------------------------------------------------------|
|  Q     Q    Q          Q     E  E E E  E E E  E   E E  E E E E E   E
|----------------------------|--------------------|--------------------|
|----------------------------|--------------------|--------------------|
|----------------------------|--------------------|--------------------|
|--2-----2----2----------2---|-2--2-2-2--6-6-6--6-|----------4-4-4---4-|
|--1-----1----1----------1---|-2--2-2-2--4-4-4--4-|-4-4--4-4-2-2-2---2-|
|----------------------------|--------------------|-2-2--2-2-----------|


  E5        A5        E5
  E E E E a E E E E   E E  E E +H       +W
|---0---------------|-0---------------|--------*|
|-----3-0-----------|--------7-(7)----|-(7)----*|
|---------2s4-2-0-1-|-----/6-7-(7)----|-(7)----*|
|-2-----------------|--------6-(6)----|-(6)----*|
|-------------------|---0----7-(7)----|-(7)----*|
|-------------------|-----------------|--------*|
|
| PM------------------|      PM---------|
| E E E E   E E E E   q    E E +H       +W
|-------------------|-----------------|--------*|
|-------------------|-----------------|--------*|
|-------------------|-----------------|--------*|
|-----------2-2-2-2-|-----------------|--------*|
|-2-2-2-2---0-0-0-0-|-2------2-(2)----|-(2)----*|
|-0-0-0-0-----------|-0------0-(0)----|-(0)----*|


Duration Legend
---------------
W - whole; H - half; Q - quarter; E - 8th; S - 16th; T - 32nd; X - 64th; a - acciaccatura
+ - note tied to previous; . - note dotted; .. - note double dotted
Uncapitalized letters represent notes that are staccato (1/2 duration)
Irregular groupings are notated above the duration line
Duration letters will always appear directly above the note/fret number it represents the
duration for.  Duration letters with no fret number below them represent rests.  Multi-
bar rests are notated in the form Wxn, where n is the number of bars to rest for.  Low
melody durations appear below the staff

Tablature Legend
----------------
 h   - hammer-on
 p   - pull-off
 b   - bend
 pb  - pre-bend
 r   - bend release (if no number after the r, then release immediately)
 /\  - slide into or out of (from/to "nowhere")
 s   - legato slide
 S   - shift slide
  - natural harmonic
[n]  - artificial harmonic
n(n) - tapped harmonic
 ~   - vibrato
 tr  - trill
 T   - tap
 TP  - trem. picking
 PM  - palm muting
\n/  - tremolo bar dip; n = amount to dip
 \n  - tremolo bar down
 n/  - tremolo bar up
/n\  - tremolo bar inverted dip
 =   - hold bend; also acts as connecting device for hammers/pulls
 <>  - volume swell (louder/softer)
 x   - on rhythm slash represents muted slash
 o   - on rhythm slash represents single note slash

Misc Legend
-----------
 |  - bar
||  - double bar
||o - repeat start
o|| - repeat end
*|  - double bar (ending)
 :  - bar (freetime)
 $  - Segno
 &  - Coda
Tempo markers -  = BPM(8/16=s8/s16), where s8 = swing 8ths, s16 = swing 16ths
Добавлено: 09.11.2015
Другие материалы по этой песне:

Страница создана 13.10.2013
http://primanota.ru/freddie-king/the-stumble-chords.htm
Привет, Гость.
Предлагаем пройти революционный курс по гитаре.
Подарок от PrimaNota.Ru, забирай!