PrimaNota.ru - самый крупный в мире бесплатный архив песенных текстов, аккордов, табулатур и нот


Freddie King - Play It Cool - бас-таба, видео

Регистрация Запомнить меня
Войти через:  Facebook Google Twitter Vk Yandex Mail.ru

Freddie King - Play It Cool - бас-таба, видео

Печатать
Просмотров: 94
Уроки эстрадного вокала в Санкт-Петербурге
-------------------------------------------------------------------------------
                        PLAY IT COOL - Freddie King
-------------------------------------------------------------------------------
Album: Is A Blues Master (2005)

Tuning: Standard
12/8 
   
G|-------------------------|-------------------------|-------------------------|-------------------------|
D|-------------------------|-0---0-------------------|-------------------------|-0---0-----------------0-|
A|-----------------------4-|-------3---3-2---2-0-----|-------2-----3-----4-----|-------3-----2-----3-----|
E|-------------------------|-----------------------2-|-3---3-------------------|-------------------------|

                                               |-3-|   
G|-----------------2---2-------------------2---------|-------7-----5-----4---2-|-0---0-------------------|
D|-------------2---------------2---------------x-2-1-|-0-----------------------|-------3-----2-----1-----|
A|-0-------0-----------------------0-----------------|-------------------------|-------------------------|
E|---------------------------------------------------|-------------------------|-------------------------|
                                                            Some people can love...         Say every... 
                                                                         |-3-|
G|-------------------------|---------------------------------------------------|-------------------------|
D|-0---0-------------------|-0-------0-------------------------------0---0-----|-------------0-----2---4-|
A|-------3-----2-----0---4-|-------------3-------3---2-----------0---------0---|-------2-----------------|
E|-------------------------|-------------------------------------------------4-|-3-----------------------|
          My baby says...                                                              What can I do now
                                                                                                   |-3-|
G|-------------------------|-------------------------|---------------------------------------------------|
D|-5---5-3-----2-----1-----|-0---0-------------------|-------------------------------------0-------------|
A|-----------------------4-|-------3-----2-----0-2/7-|-5-------5---3-----------2---------------3---2-2-1-|
E|-------------------------|-------------------------|---------------------------------------------------|
              Ah, just play it cool.

G|-------------2-----------|-------------------------|-------------------------0-----------0-1/--------|
D|-------2-----------2-----|-------------------------|-0-------0---4-----------------------------------|
A|-0-------------------2-0-|-------2-----3-----4-----|-------------------------------------------------|
E|-------------------------|-3---3-------------------|-------------------------------------------------|
       Just play it cool...
                                               |-3-|
G|/2---------------------------------------2---0-----|-------7-----------------|-------------------------|
D|-------------2---------------2-----------------2-1-|-0-----------7------6----|-5---5-3-----2-----1-----|
A|-----------------0---------------0-----------------|-------------------------|-----------------------4-|
E|---------------------------------------------------|-------------------------|-------------------------|
                                                            Now women look good...   They can look sexy...

G|-------------------------|-----------7-5---5-4-----|-------------------------|-------------------------|
D|-------------------------|-------4-7-------------7-|-5---5-3-----2-----0-----|-------------------------|
A|-5---5-3-----2-----0---4-|-5---5-------------------|-------------------------|-------2-----3-----4-----|
E|-------------------------|-------------------------|-----------------------4-|-3---3-------------------|
        They can wear...                                 But what can I do...

G|-------------------5-4-2-|-------------------------|-----------2-------------|-------------------------|
D|-0---0-4/12--------------|-0---0-------------------|---------2---2---2-------|-------------------------|
A|-------------------------|-------3-----2-----1-----|-0---0-4-----------4-2-0-|-------2-----3-----4-----|
E|-------------------------|-----------------------3-|-------------------------|-3---3-------------------|
                                            Yeah,  just play it cool now.            Cuz that's the only...

G|-------------0-----1-----|-2-2---2-2---2-2---2-2---|-----7-----7-----7---7---|-0-----0-----0-----0-----|
D|-0---0-4-----------------|-------------------------|-0-----0-----0-----0---0-|-------------------------|
A|-------------------------|-----0-----0-----0-----0-|-------------------------|---------------------3-4-|
E|-------------------------|-------------------------|-------------------------|-----3-----3-----3-------|

                                                                         |-3-|
G|-----7-----7-----7---0-2-|---------------------------------------------------|-------------------------|
D|-0-----0-----0-----4-----|-0-----x-0-------------------------------2---------|-------------0---0-2-0-4-|
A|-------------------------|-------------3-----x-3---2-------2---0-------0-0---|-------2---2-------------|
E|-------------------------|-------------------------------------------------4-|-3---3-------------------|


G|-0---0-------------------|-------------------------|---------2-7-5---5-4-0-1-|
D|-------3---3-2---2-------|-0---0-------------------|-0---0-4-----------------|
A|-------------------0-2-4-|-------------0---0-2-0-4-|-------------------------|
E|-------------------------|-------2---2-------------|-------------------------|

                                               |-3-|    
G|-2-------2---0-------0-------------------4---2-2-1-|-0---0-------------------|-------------------------|
D|-------------------------4-------4---2-------------|-------3---3-2---2-0-2---|-0---0-------------------|
A|---------------------------------------------------|-----------------------4-|-------------------------|
E|---------------------------------------------------|-------------------------|-------2---2-3---3-4---4-|

                                               |-3-|
G|-------------------------2-----------2-------------|-------------------------|-------------------------|
D|-----------------------------------------2---2-2-1-|-0-----------------------|-------------------------|
A|-0-------0---0---0---0-------0---0-----------------|-------3-----2-----0-----|-------2-----3-----4-----|
E|---------------------------------------------------|-----------------------2-|-3---3-------------------|
                                                          People may be wrong...     They can't be wrong...
                                                                     |-3-|
G|-------------------4---6-|-7-------7\5-------5\4-------4---7---5---------|-------------------------|
D|-0---0-4-----7-------7---|-----------------------------------------7-7-6-|-5-----3-----2-----0-----|
A|-------------------------|-----------------------------------------------|-------------------------|
E|-------------------------|-----------------------------------------------|-----------------------4-|
                                                                              What can I do...
                                                                                                 |-3-|
G|-------------------------|-------------------------|-------------------7-------5---4-------7---------|
D|-------------0-2-0-5\2---|-0---0-------------------|-0-----0---4---7-------------------7-------------|
A|-------2---2-------------|-------3-----2-----0---4-|-------------------------------------------------|
E|-3---3-------------------|-------------------------|-------------------------------------------3-3-4-|
                            Just play it cool  

G|-------------------2-----|-------------------------|-------------0---0-1---1-|-2---2-------------------|
D|-------------2---2-------|-------------0---0-2-----|-0---0-4---4-------------|-------2-----0-----------|
A|-0---0-4---4---------0---|-------2---2---------3-4-|-------------------------|-------------------------|
E|-----------------------4-|-3---3-------------------|-------------------------|-------------------------|
  Just play it cool           cuz that's the only thing I know to do.


| /     slide up
| \     slide down
| h     hammer-on
| p     pull-off
| ~     vibrato
| +     harmonic
| x     Mute note
| |-3-| Triplet
===============================================================================
Добавлено: 19.04.2016
Другие материалы по этой песне:
  • Аккорды и текст

Страница создана 19.04.2016
http://primanota.ru/freddie-king/play-it-cool-chords.htm
Привет, Гость.
Предлагаем пройти революционный курс по гитаре.
Подарок от PrimaNota.Ru, забирай!