PrimaNota.ru - самый крупный в мире бесплатный архив песенных текстов, аккордов, табулатур и нот


Frank Zappa - Planet of The Baritone Women - текст песни, бас-таба, видео

Регистрация Запомнить меня
Войти через:  Facebook Google Twitter Vk Yandex Mail.ru

Frank Zappa - Planet of The Baritone Women - текст песни, бас-таба, видео

Печатать
Просмотров: 49
Новый альбом группы 'Черный Кузнец' по культовому сериалу 'Сверхъестественное'!
-------------------------------------------------------------------------------
                  Planet Of The Baritone Women - Frank Zappa
-------------------------------------------------------------------------------
Tabbed by: jacque
E-mail: imbatman1312@gmail.com

Tuning: Standard

A lot of the bassline follows Ike's Singing

Horn Intro

Verse (0:05)

   "On The Planet of the..."

G|-------------------------------------------------------------------------------|
D|-----3-3-3h5-----------3-------------------------------------------------------|
A|--3----------5-5-5-5-0---3------3------1/3-------5---------5------------5------|
E|-----------------------------1-----3-------3--1----3----1-----3----0-1-----3---|

   "Ha Ha Ha Haaa..."

G|----------------------|
D|---------------10-----|
A|--10-8----------------|
E|-------11-8-----------|

Short Horn Break

Verse

  "If You Can't..."

G|------------------------------------------------------|
D|-------------------------------------------------10---|
A|-----(3)-----5----------------5-------10-8------------|
E|--1------3------3-----1--3-------3---------11-8-------|

Short Horn Break

Verse

G|-------------------------------------------------------------------|
D|-------------------------------------------------------------------|
A|-----------------5--------------5------------5------------5--------|
E|-10\\\---1-x--3-----3----4~--3----3---4~--3-----3--4~--3-----3-----|

G|-----------------------------|
D|-----------------------------|
A|--------5-------------5------|
E|-1-2-3-----3---4~--3-----3---|

G|-----------------------------|
D|-----------------------------|
A|--------5-------------5------|
E|-1-2-3-----3---4~--3-----3---|

  "Ha Ha Ha Haaa..."

G|----------------------|
D|---------------10-----|
A|--10-8----------------|
E|-------11-8-----------|

Short Horn Break

Verse

"They Sing about wheat..."

G|-------------------------------------------------------------------|
D|-------------------------------------------------------------------|
A|-----5------5----------5------5------------5----------5-----5------|
E|--1-----3------3----4-----3-----3---1-2-3-----3----4-----3-----3---|

G|--------------------------------------------------------------|
D|----5-4-5-----------------------------------------------------|
A|--5--------5---5------5---------------5-----5------5---/10----|
E|-------------3---4-3----3---1--4--3-----3-----4-3----3--------|

  "Ha Ha Ha Haaa..."

G|----------------------|
D|---------------10-----|
A|--10-8----------------|
E|-------11-8-----------|

Short Horn Break

Verse (Bobby Martin Part)

G|---------------------------------|
D|----------------------------5----|
A|-----5--------5-----5-----5------|
E|--3-----4--3-----3-----3---------|

Bobby Martin Singing Solo

Music Resumes

G|--------------------7----------|
D|-----------------------5---5---|
A|-----5-----5-----5-------------|
E|--3-----3-----3----------------|

G|------------------------------------------------------------------------------------------|
D|-5/16--16-16--13--13-13----------------------------------5-5---6-6---7-7--8--7-8-7-8-7-8--|
A|------------------------15--15-15--12~\---------------------------------------------------|
E|----------------------------------------2-1-2-1-2-1-2--3-----4-----5----------------------|

G|--8--7-8-7-8-------------8---|
D|-----------------------------|
A|--------------6-6--6-6~------|
E|-----------------------------|

Short Horn Break

Slapped Part

G|-----8-----10----5------------------------|
D|--------------------------8-8--6--5--3----|
A|-6-x---8-8----3---------------------------|
E|-------------------4~---------------------|

G|-----8-----10----5------------------------|
D|--------------------------8-8--6--5--3----|
A|-6-x---8-8----3---------------------------|
E|-------------------4~---------------------|

                       "Those Baritone Women..."

G|---------------------------------------------------------------|
D|---------------------------------------------------------------|
A|-6-6-8~-------------------------------12\\\\\\\\3--------------|
E|--------10\\\---5------3--5--3--5--3---------------5-3-5-3-5---|

"Ha Ha Ha Haa"

G|-----------------7----|
D|--7--5----------------|
A|--------8--5----------|
E|----------------------|

Bridge

G|------------------7--------|
D|--------------------5------|
A|----------------------5----|
E|--1-1-1--1-1-/4------------|

Cartoony Ending

G|--------------------------|
D|--------------------------|
A|--3-----3-----3-----3-----|
E|-----3-----3-----3--------|

| () ghost note
| /  slide up
| \  slide down
| h  hammer-on
| p  pull-off
| ~  vibrato
| +  harmonic
| x  Mute note
===============================================================================
Добавлено: 12.03.2018
Другие материалы по этой песне:
  • Аккорды и текст

Страница создана 28.12.2013
http://primanota.ru/frank-zappa/planet-of-the-baritone-women-chords.htm
Привет, Гость.
Предлагаем пройти революционный курс по гитаре.
Подарок от PrimaNota.Ru, забирай!