PrimaNota.ru - самый крупный в мире бесплатный архив песенных текстов, аккордов, табулатур и нот


Frank Zappa - King Kong Iii - бас-таба, видео

Регистрация Запомнить меня
Войти через:  Facebook Google Twitter Vk Yandex Mail.ru

Frank Zappa - King Kong Iii - бас-таба, видео

Печатать
Просмотров: 31
-------------------------------------------------------------------------------
                        King Kong III - Frank Zappa
-------------------------------------------------------------------------------
Tabbed by: Jacque
E-mail: Imbatman1312@gmail.com

Tuning: Standard

Also known as "King Kong (as Motorhead explains it)" on vinyl editions

Main Bassline

G|--------------------------------------------|
D|--------------------------------------------|
A|-(4)h6---6-6--6--6--6---6---6-6--6--6--6----| Repeats Until 0:55
E|--------------------------------------------|

0:55

G|---8-------------------------------------|
D|-----------------------------------------|
A|-6----6-6--6---6-6--6---6-6--6--6--6-----| Repeats Until 1:31
E|-----------------------------------------|

1:31

G|---8----------------------|
D|--------------------------|
A|-6----(4)h6---6--6--6-----| Repeat Until Finish (1:45)
E|--------------------------|


| () ghost note
| /  slide up
| \  slide down
| h  hammer-on
| p  pull-off
| ~  vibrato
| +  harmonic
| x  Mute note
===============================================================================
Добавлено: 08.02.2016
Другие материалы по этой песне:
  • Аккорды и текст

Страница создана 08.02.2016
http://primanota.ru/frank-zappa/king-kong-iii-chords.htm
Привет, Гость.
Предлагаем пройти революционный курс по гитаре.
Подарок от PrimaNota.Ru, забирай!