PrimaNota.ru - самый крупный в мире бесплатный архив песенных текстов, аккордов, табулатур и нот


Frank Zappa - Jones Crusher - текст песни, таба, видео

Регистрация Запомнить меня
Войти через:  Facebook Google Twitter Vk Yandex Mail.ru

Frank Zappa - Jones Crusher - текст песни, таба, видео

Печатать
Просмотров: 56
-------------------------------------------------------------------------------
                          Frank Zappa - Jones Crusher
-------------------------------------------------------------------------------
Tabbed by: Jacque
E-mail: Imbatman1312@gmail.com

Tuning: Standard

I'm amazed that this hasn't been tabbed yet, being one of the best tracks from sheik yerbouti (in my opinion
at least)

NOTE - This is the part Zappa would have played, I haven't included the lead overdubs.

Verse 1

This part is weirdly muted, it's hard to explain.

e|------------------------|
B|------------------------|
G|------------------------|
D|---7-----7-7--7-7---7---| x14
A|---5-----5-5--5-5---5---|
E|-0---0-0----0-----0-----|

e|--------------------------|
B|--------------------------|
G|--------------------------|
D|---7-----7-7--7-7---7-----| 
A|---5-----5-5--5-5---5-----|
E|-0---0-0----0-----0-------|

Chorus 1

                                    P.M--------------------------------------------  
e|---------------------------------------------------------------------------------|
B|---------------------------------------------------------------------------------|
G|---7-----------------------------------------------------------------------------|
D|---7-----------2-2--5-5--9----6--------9----9-----9-----9-----9-----9-----9------|
A|---5------5-5--0-0--3-3--7----4--------7----7-----7-----7-----7-----7-----7------|
E|-0--------3-3-----------------------7----0-----7-----0-----7-----0-----7-----0---|

P.M-------------------------------------------- 
e|----------------------------------------------|
B|----------------------------------------------|
G|----------------------------------------------|
D|-----9----9-----9-----9-----9-----9-----9-----|
A|-----7----7-----7-----7-----7-----7-----7-----|
E|--7----0-----7-----0-----7-----0-----7-----0--|

Verse 2

e|------------------------|
B|------------------------|
G|------------------------|
D|---7-----7-7--7-7---7---| x14
A|---5-----5-5--5-5---5---|
E|-0---0-0----0-----0-----|

e|--------------------------|
B|--------------------------|
G|--------------------------|
D|---7-----7-7--7-7---7-----| 
A|---5-----5-5--5-5---5-----|
E|-0---0-0----0-----0-------|

Chorus 2

                                    P.M--------------------------------------------  
e|---------------------------------------------------------------------------------|
B|---------------------------------------------------------------------------------|
G|---7-----------------------------------------------------------------------------|
D|---7-----------2-2--5-5--9----6--------9----9-----9-----9-----9-----9-----9------|
A|---5------5-5--0-0--3-3--7----4--------7----7-----7-----7-----7-----7-----7------|
E|-0--------3-3-----------------------7----0-----7-----0-----7-----0-----7-----0---|

P.M-------------------------------------------- 
e|----------------------------------------------|
B|----------------------------------------------|
G|----------------------------------------------|
D|-----9----9-----9-----9-----9-----9-----9-----|
A|-----7----7-----7-----7-----7-----7-----7-----|
E|--7----0-----7-----0-----7-----0-----7-----0--|

Bridge ("Here she comes")

e|-------------------------------------------------------|
B|---------------------------------------------99999-----|
G|---------------------------------------------99999-----|
D|-9-9-\-7----/9------7-----9-9-9-9-----7-7----99999-----|
A|-7-7-\-5----/7------5-----7-7-7-7-----5-5----77777-----|
E|-------------------------------------------------------|

e|-----------------------------------------------|
B|-----------------------------------------------|
G|-7---------7---------7--------7----------------|
D|-7---------7---------7--------7----------------|
A|-5---------5---------5--------5----------------|
E|---------------------------------------12\-----|

Outro

e|-----------------------------|
B|-----------------------------|
G|-2--2----------7--7---2--2---|
D|-2--2---2--2---7--7---2--2---| x4
A|-0--0---2--2---5--5---0--0---|
E|--------0--0-----------------|

OR

e|-12br-10-12~-12~-------------------------------|
B|---------------------10--10---10h12p10---10----|
G|----------------9-11-------------------11------|
D|-----------------------------------------------| x4
A|-----------------------------------------------|
E|-----------------------------------------------|

Then there's some very quick improvisation

************************************

| /   slide up
| \   slide down
| h   hammer-on
| p   pull-off
| ~   vibrato
| +   harmonic
| x   Mute note
| b   Bend
| pb  Pre-bend
| br  Bend release
| pbr Pre-bend release
| brb Bend release bend

************************************
Добавлено: 26.09.2015
Другие материалы по этой песне:
  • Аккорды и текст

Страница создана 27.07.2012
http://primanota.ru/frank-zappa/jones-crusher-chords.htm
Привет, Гость.
Предлагаем пройти революционный курс по гитаре.
Подарок от PrimaNota.Ru, забирай!