PrimaNota.ru - самый крупный в мире бесплатный архив песенных текстов, аккордов, табулатур и нот


Frank Zappa - Toads Of The Short Forest - текст песни, таба, видео

Регистрация Запомнить меня
Войти через:  Facebook Google Twitter Vk Yandex Mail.ru

Frank Zappa - Toads Of The Short Forest - текст песни, таба, видео

Печатать
Просмотров: 106

_Toad of the short forrest (Intro)_
by Frank Zappa
transcribed by Peter den Hoed (pdhoed@yahoo.com)


This transcription is based on the version of Toad of the short forest featured on
Weasels ripped my flesh.This piece is in 6/8. 


Symbology:  h = hammer on
            p = pull off
  2X

E ||-----------------|--------------||-------------10--9------|------9--h10--p9------9--|
B ||--7--5-----------|--7--5-----5--||-----10--12---------10--|--12--------------12-----|
G ||--------7--6-----|--------7-----||--9---------------------|-------------------------|
D ||--------------7--|--------------||------------------------|-------------------------|
A ||-----------------|--------------||------------------------|-------------------------|
E ||-----------------|--------------||------------------------|-------------------------|


|-------------10--9------|--12--10--8------------|------------------------------|
|-----10--12---------10--|-------------12--8-----|--------8--8--10--10--11--11--|
|--9---------------------|--------------------9--|--7--8------------------------|
|------------------------|-----------------------|------------------------------|
|------------------------|-----------------------|------------------------------|
|------------------------|-----------------------|------------------------------|


|-------------8--|---------------------------|------------10----------|
|--10------------|--8--h9--8------12--10--8--|--9--8----------11------|
|------10--7-----|------------10-------------|--------10----------10--|
|----------------|---------------------------|------------------------|
|----------------|---------------------------|------------------------|
|----------------|---------------------------|------------------------|


|-------------10--9------|------9--h10--p9------9--|-------------10--9------|
|-----10--12---------10--|--12--------------12-----|-----10--12---------10--|
|--9---------------------|-------------------------|--9---------------------|
|------------------------|-------------------------|------------------------|
|------------------------|-------------------------|------------------------|
|------------------------|-------------------------|------------------------|


|--12--10--8------------|------------------------------|-------------8--|
|-------------12--8-----|--------8--8--10--10--11--11--|--10------------|
|--------------------9--|--7--8------------------------|------10--7-----|
|-----------------------|------------------------------|----------------|
|-----------------------|------------------------------|----------------|
|-----------------------|------------------------------|----------------|


|------------------------------------------|------6--|---------------------|
|--11--9--8--------------------------8--9--|--10--6--|--12--8-----------8--|
|------------10--9--10-----7--9--10--------|------7--|---------9-----9-----|
|-----------------------8------------------|------8--|------------9--------|
|------------------------------------------|------8--|---------------------|
|------------------------------------------|------6--|---------------------|


|--------------------|--------------------10--|--9------9------|------------------------|
|--7-----------------|----------------12------|-----10-----12--|--10--------------------|
|-----7-----6--------|---------9--12----------|----------------|------9-----------------|
|--------9-----7-----|------9-----------------|----------------|---------10--9--10--12--|
|-----------------7--|--10--------------------|----------------|------------------------|
|--------------------|------------------------|----------------|------------------------|


|------------------|-------------------------|----------------|
|------------------|-------------------------|----------------|
|------------------|-------------------------|--9------9--10--|
|--13--12--10------|--11--9--11--12--11--12--|-----12---------|
|--------------12--|-------------------------|----------------|
|------------------|-------------------------|----------------|
Добавлено: 08.07.2013
Другие материалы по этой песне:
  • Аккорды и текст

Страница создана 07.04.2012
http://primanota.ru/frank-zappa/toads-of-the-short-forest-chords.htm
Привет, Гость.
Предлагаем пройти революционный курс по гитаре.
Подарок от PrimaNota.Ru, забирай!