PrimaNota.ru - самый крупный в мире бесплатный архив песенных текстов, аккордов, табулатур и нот


Frank Zappa - Happy Together - текст песни, бас-таба, видео

Регистрация Запомнить меня
Войти через:  Facebook Google Twitter Vk Yandex Mail.ru

Frank Zappa - Happy Together - текст песни, бас-таба, видео

Печатать
Просмотров: 146
Frank Zappa
Happy Together
White Album (Fillmore June 1971)
Tabbed by Joe Rutan (childrenskunk@ameritech.net)

Intro
G:---------------------------------------
D:-6--6-6-6-6-6-6-6----------------------
A:---6-6-6-6-6-6-6--9-9-9-9--7-7-7-7--6r-
E:-------------------9-9-9-9--7-7-7-7----

Verse
G:-------------------------------
D:-6-6-6-6-----------------------
A:--6-6-6-6-9-9-9-9--7-7-7-7--6r-
E:-----------9-9-9-9--7-7-7-7----

Chorus (till end with variations)
G:-----------------------
D:-6666------66---6-8-9r-
A:------6666----6--------
E:-----------------------

Chorus Variation
G:-------------------------------
D:-6-6-6-6-----------6-6--6-8-9r-
A:--6-6-6-6-6-6-6-6---6-6--------
E:-----------6-6-6-6-------------

**R's are for repeat. Each with varied numbers/rhythm

     
Добавлено: 14.08.2013
Другие материалы по этой песне:
  • Аккорды и текст

Страница создана 25.05.2012
http://primanota.ru/frank-zappa/happy-together-chords.htm
Привет, Гость.
Предлагаем пройти революционный курс по гитаре.
Подарок от PrimaNota.Ru, забирай!