PrimaNota.ru - самый крупный в мире бесплатный архив песенных текстов, аккордов, табулатур и нот


Francisco Tarrega - Las Dos Hermanitas - таба, видео

Регистрация Запомнить меня
Войти через:  Facebook Google Twitter Vk Yandex Mail.ru

Francisco Tarrega - Las Dos Hermanitas - таба, видео

Печатать
Просмотров: 142
         ********************************
         *  El Sueno  (Mazurca)         *
         *  Francisco Tarrega           *
         *  tab by James McKaskle       *
         *  e-mail: jmcka2@hotmail.com  *
         ********************************


  | . + . | . + . | . + .   | . + . | . + . | . + .   | . + . | . + . | . + .
E-------------------------|---------0-------1-------|-2-----3-8-------7---5----|
B-----------------0-------|-1-----3-1-------------0-|-1-----1-5----------------|
G-0-----1-2---------------|-------0---------0-------|---------5----------------|
D-3-----3-3-------3-------|-2---------------0-------|-1------------------------|
A-------------------------|-3-----------------------|---------7----------------|
E-3---------------3-------|-------------------------|--------------------------|

  t . + . | . + . | . + .   t  *  *  | . + . | . + .   t  *  *  | . + . | . + .
E-5-------0---------------|-3----------------1-------|-1--0-------------0--------|
B-------8---------1-------|----6--3--0---------------|-------1-------------------|
G-----------------0-------|-0----------------0-------|-0--------0-------0--------|
D-----------------2-------|-0------------------------|---------------------------|
A-------------------------|------------------2-------|-3----------------3--------|
E-0-----------------------|--------------------------|---------------------------|

1st ending---------------------------------------------|--2nd ending---------------|
  |  *  *  | . + . | . + .   |  *  *  | . + . | . + .     |  *  *  | . + . | . + .
E-0------------------------|---------------------------||-0------------------------|
B----3-----3-------1-------|-1--0----------------------||----3-----3-------1-------|
G-2-----2----------2-------|-0-----2--0---------------o||-2-----2----------0-------|
D------------------0-------|-0------------------------o||------------------2-------|
A--------------------------|---------------------------||--------------------------|
E-1----------------2-------|-3----------------3--------||-1----------------3-------|

  |  *  *  | . + . | . + .    | . + . | . + . | . + .   | . + . | . + . | . + .
E--------------------------||-8-----7-5---8---7---5---|-7-----3-0---------------|
B-0--------1---------------||---------5-------5-------|---------0-------0-------|
G-0--------0---------------||---------5-------5-------|---------0-------0-------|
D-0--2--3--2---------------||-------------------------|-------------------------|
A----------3---------------||-0-----------------------|-------------------------|
E-3------------------------||-------------------------|-0-----------------------|
                       fine

  | . + . | . + . | . + .   | . + . | . + . | . + .   |  *  *  | . + . | . + .
E-5-----3-----5---3---1---|-3-----0-----------------|--------------------------|
B---------6---------------|---------1---------------|-1--3--5--5---------------|
G-5---------------2-------|-0---------------0-------|-2--4--5--5---------------|
D-3---------------3-------|-----------------2-------|--------------------------|
A-------------------------|-3-----------------------|-0------------------------|
E-------------------------|-------------------------|------------------0-------|

  |  *  *  | . + . | . + .   |  *  *  | . + . | . + .   |  *  *  | . + . | . + .
E--------------------------|-0--1--3--3---------------|-0--1--3--3---------------|
B-1--3--5--5---------------|-2--3--5--5---------------|-2--3--5--5---------------|
G-2--4--5--5---------------|-0--------0---------------|-0--------0---------------|
D--------------------------|--------------------------|--------------------------|
A-0------------------------|-3------------------------|-3------------------------|
E------------------0-------|------------------3-------|------------------3-------|

  |  *  *  | . + . | . + .   |  *  *  | . + . | . + .   |  *  *  | . + . | . + .
E------------------1-------|-0------------------------|-0--------2-------7-------|
B-1--------0-------3-------|-1--3--1--3---------------|-0--------0-------0-------|
G-0--------0-------0-------|-0--0--0--4---------------|-0--------2---------------|
D-2--------3---------------|----------5---------------|-2-----2--1---------------|
A-3--2--3--5-------2-------|-3------------------------|----2---------------------|
E--------------------------|------------------3-------|--------------------------|

  |  *  *  | . + . | . + .
E-5--3--2--0---------------||
B--------------------------||
G-5--4--2--0---------------||
D--------------------------||
A--------------------------||
E-0----------------2-------||
                D.C. al fine



|  *  *   play those notes triplet

   t      ornament play 5-7-5 rapidly
---5----

Добавлено: 03.03.2012
Другие материалы по этой песне:
  • Аккорды и текст

Страница создана 03.03.2012
http://primanota.ru/francisco-tarrega/las-dos-hermanitas-chords.htm
Привет, Гость.
Предлагаем пройти революционный курс по гитаре.
Подарок от PrimaNota.Ru, забирай!