PrimaNota.ru - самый крупный в мире бесплатный архив песенных текстов, аккордов, табулатур и нот


Francisco Tarrega - Grand Waltz Gran Vals - таба, видео

Регистрация Запомнить меня
Войти через:  Facebook Google Twitter Vk Yandex Mail.ru

Francisco Tarrega - Grand Waltz Gran Vals - таба, видео

Печатать
Просмотров: 724
E-|---Song:-Grand-Waltz-(Grand Vals)---------------|
A-|---Composer:-Francisco Tarrega------------------|
D-|---Transcription-by:Christian Liang-------------|
G-|---E-Mail:christian.liang@gmail.com-------------|
B-|---http://www.classclef.com---------------------|
E-|---Enjoy!---------------------------------------|

Grand Waltz (Grand Vals) by Francisco Tarrega (1852-1909)

Part A (play once)

[1]

E|----------------------------------|----------------------------------|
B|------------------------2-/-5-----|----5============================-|
G|----------------------------------|--------------6---------6---------|
D|----------------------------------|--------------7---------7---------|
A|----------------------------------|----0============================-|
E|----------------------------------|----------------------------------|
 |    |    |    |    |    |    |    |    |    |    |    |    |    |    |
R                                        a         m         m
                                         p         i         i
L                         1              1         2         2
                                                   3         3
[3]
                                         II.............................
E|----------------------------------|----2============================-|
B|----7============================-|--------------2---------2---------|
G|--------------6---------6---------|--------------2---------2---------|
D|--------------7---------7---------|----------------------------------|
A|----------------------------------|----0============================-|
E|----0============================-|----------------------------------|
 |    |    |    |    |    |    |    |    |    |    |    |    |    |    |
R     a         m         m              a         m         m
      p         i         i              p         i         i
L     4         2         2              1         1         1
                3         3                        1         1

[5]
........................................................................
E|----4============================-|----4==================-5---------|
B|--------------2---------2---------|--------------2---------2---------|
G|--------------2---------2---------|--------------2---------2---------|
D|----------------------------------|----------------------------------|
A|----------------------------------|----0============================-|
E|----0============================-|----------------------------------|
 |    |    |    |    |    |    |    |    |    |    |    |    |    |    |
R     a         m         m              a         m         a
      p         i         i              p         i         m
                                                             i

L     3         1         1              3         1         4
                1         1                        1         1
                                                             1

[7]
........................................................................
E|----5==================-4---------|----4-p-2-------------------------|
B|--------------2---------2---------|--------------3---------3---------|
G|--------------2---------2---------|--------------4---------4---------|
D|----------------------------------|----------------------------------|
A|----------------------------------|----2============================-|
E|----0============================-|----------------------------------|
 |    |    |    |    |    |    |    |    |    |    |    |    |    |    |
R     a         m         a              a         m         m
      p         i         m              p         i         i
                          i

L     4         1         3              3         2         2
                1         1              1         3         3
                          1

[9]
.......................................................................
E|----------------------------------|----2============================-|
B|----------------------------------|--------------3---------3---------|
G|----------------------------------|--------------4---------4---------|
D|----------------------------------|----------------------------------|
A|----2---------4---------5---------|----------------------------------|
E|----------------------------------|----0============================-|
 |    |    |    |    |    |    |    |    |    |    |    |    |    |    |
R     p         p         p              a         m         m
                                         p         i         i

L     1         3         4              1         2         2
                                                   3         3

[11]
...........................              VII............................
E|----4==================-5-/--9----|----9============================-|
B|--------------3---------3---------|--------------9---------9---------|
G|--------------4---------4---------|--------------7---------7---------|
D|----------------------------------|----------------------------------|
A|----2============================-|----------------------------------|
E|----------------------------------|----0============================-|
 |    |    |    |    |    |    |    |    |    |    |    |    |    |    |
R     a         m         a              a         m         m
      p         i         m              p         i         i
                                                             i
L     4         2         4              4         3         3
      1         3         2                        1         1
                                                             3

[13]                                     Nokia
.....................................
E|----7============================-|----12-p-10-----------------------|
B|--------------9---------9---------|------------------------9---------|
G|--------------7---------7---------|--------------11------------------|
D|----------------------------------|----------------------------------|
A|----7============================-|----------------------------------|
E|----------------------------------|----0============================-|
 |    |    |    |    |    |    |    |    |    |    |    |    |    |    |
R     a         m         m              a         i         m
      p         i         i              p
L     1         3         3              4    2    3         1
      1         1         1

[15]
      VII............................    V..............................
E|----9-p-7-------------------------|----7-p--5------------------------|
B|----------------------------------|------------------------5---------|
G|--------------7---------9---------|--------------6-------------------|
D|----------------------------------|----------------------------------|
A|----------------------------------|----0============================-|
E|----0============================-|----------------------------------|
 |    |    |    |    |    |    |    |    |    |    |    |    |    |    |
R     a         i         i              a         i         m
      p                                  p

L     3    1    1         3              3    1    2         1

[17]   Harmonic

E|----------------------------------|----------------------------------|
B|------------------------2-/-5-----|----5============================-|
G|----------------------------------|--------------6---------6---------|
D|----------------------------------|--------------7---------7---------|
A|---<7>----------------------------|----0============================-|
E|----------------------------------|----------------------------------|
 |    |    |    |    |    |    |    |    |    |    |    |    |    |    |
R     p                                  a         m         m
                                                   i         i
L     3                   1              1         2         2
                                                   3         3

[19]
                                         II.............................
E|----------------------------------|----2============================-|
B|----7============================-|--------------2---------2---------|
G|--------------6---------6---------|--------------2---------2---------|
D|--------------7---------7---------|----------------------------------|
A|----------------------------------|----0============================-|
E|----0============================-|----------------------------------|
 |    |    |    |    |    |    |    |    |    |    |    |    |    |    |
R     a         m         m              a         m         m
      p         i         i              p         i         i
L     4         2         2              1         1         1
                3         3              1         1         1

[21]
........................................................................
E|----4============================-|----4============================-|
B|--------------2---------2---------|--------------2---------2---------|
G|--------------2---------2---------|--------------2---------2---------|
D|----------------------------------|----------------------------------|
A|----------------------------------|----0============================-|
E|----0============================-|----------------------------------|
 |    |    |    |    |    |    |    |    |    |    |    |    |    |    |
R     a         m         m              a         m         m
      p         i         i              p         i         i
L     3         1         1              3         1         1
                1         1                        1         1

[23]
.....................................
E|----5============================-|----12===========================-|
B|--------------2---------2---------|--------------12--------12--------|
G|--------------2---------2---------|--------------11--------11--------|
D|----------------------------------|----0============================-|
A|----0============================-|----------------------------------|
E|----------------------------------|----------------------------------|
 |    |    |    |    |    |    |    |    |    |    |    |    |    |    |
R     a         m         m              a         m         m
      p         i         i              p         i         i
L     4         1         1              4         3         3
                1         1                        2         2


[25]
                                         VII............................
E|----10===========================-|----------------------------------|
B|--------------12--------12--------|----7============================-|
G|--------------11--------11--------|--------------7---------7---------|
D|----0-----------------------------|--------------9---------9---------|
A|----------------------------------|----------------------------------|
E|----------------------------------|----7============================-|
 |    |    |    |    |    |    |    |    |    |    |    |    |    |    |
R     a         m         m              a         m         m
      p         i         i              p         i         i
L     1         3         3              1         1         1
                2         2              1         3         3

[27]
                                         VII............................
E|----10----------------------------|----9============================-|
B|--------------10--------10--------|--------------10--------10--------|
G|--------------10--------10--------|--------------9---------9---------|
D|----0============================-|----------------------------------|
A|----------------------------------|----7============================-|
E|----------------------------------|----------------------------------|
 |    |    |    |    |    |    |    |    |    |    |    |    |    |    |
R     a         m         m              a         m         m
      p         i         i              p         i         i

L     4         3         3              3         4         4
                2         2              1         2         2

[29]


E|----------------------------------|----------------------------------|
B|----5============================-|----7============================-|
G|--------------6---------6---------|--------------8---------8---------|
D|--------------7---------7---------|--------------9---------9---------|
A|----------------------------------|----------------------------------|
E|----0============================-|----0============================-|
 |    |    |    |    |    |    |    |    |    |    |    |    |    |    |
R     a         m         m              a         m         m
      p         i         i              p         i         i
L     1         2         2              1         2         2
      3         3                        3         3


[31]
      VII............................    V..............................
E|----7============================-|----5-----------------------------|
B|--------------9---------9---------|----5-----------------------------|
G|--------------7---------7---------|----6-----------------------------|
D|----------------------------------|----------------------------------|
A|----7============================-|--------------7-------------------|
E|----------------------------------|----5-------------------9---------|
 |    |    |    |    |    |    |    |    |    |    |    |    |    |    |
R     a         m         m              a         p         p
      p         i         i              m
                                         i
                                         p
L     1         4         4              1         3         4
      1         1         1              1
                                         2
                                         1

[33]            Part B (play twice)

E|--------------12-p-11---14-p-12---|----9h11p9----7---------7---------|
B|----------------------------------|--------------9---------9---------|
G|----------------------------------|------------------------9---------|
D|----------------------------------|----------------------------------|
A|----------------------------------|----------------------------------|
E|----5-----------------------------|----0============================-|
 |    |    |    |    |    |    |    |    |    |    |    |    |    |    |
R     p         a         a              a         a         a
                                         p         m         m
L     1         2    1    4    2         1h3       1         1
                                                   3         3
[35]
                                         IV.............................
E|--------------0-h--4----0----4----|----5h7p5-------------------------|
B|---------0------------------------|--------------4---------4---------|
G|----------------------------------|--------------4---------4---------|
D|----------------------------------|----4============================-|
A|----------------------------------|----------------------------------|
E|----0============================-|----------------------------------|
 |    |    |    |    |    |    |    |    |    |    |    |    |    |    |
R     p    i    m         i    m         a         m         m
                                         p         i         i

L                    2         2         2h4       1         1
                                         I         1         1


[37]
          IX.............................IX.............................
E|--------------14-p-12---12-p-9----|----12--------11--------11--------|
B|----------------------------------|--------------10--------10--------|
G|----------------------------------|----------------------------------|
D|----4-/-9========================-|--------------9---------9---------|
A|----------------------------------|----9============================-|
E|----------------------------------|----------------------------------|
 |    |    |    |    |    |    |    |    |    |    |    |    |    |    |
R     p         a         a              a         a         a
                                         p         m         m
                                                   p         p
L     1         4    2    3    1         4         3         3
                                         1         2         2
                                                   1         1

[39]  VII............................

E|--------------11-p-7----9---------|----9h11p9----7---------7---------|
B|-----------------------------10---|--------------9---------9---------|
G|----------------------------------|------------------------9---------|
D|----------------------------------|----------------------------------|
A|----------------------------------|----------------------------------|
E|----7============================-|----0============================-|
 |    |    |    |    |    |    |    |    |    |    |    |    |    |    |
R     p         a         a    m         a         a         a
                                         p         m         m
                                                             i

L     1         4    1    3    4         2h4       1         1
                                                   3         3
                                                             2
[41]

E|--------------12-p-11---14-p-12---|----9h11p9----7---------7---------|
B|----------------------------------|--------------9---------9---------|
G|----------------------------------|------------------------9---------|
D|----------------------------------|----------------------------------|
A|----------------------------------|----------------------------------|
E|----0============================-|----0============================-|
 |    |    |    |    |    |    |    |    |    |    |    |    |    |    |
R     p         a         a              a         a         a
                                         p         m         m
                                                             i

L          2    1         4    2         1h3       1         1
                                                   3         3
                                                             2

[43]
                                                   II..................
E|-------------------0----5/12------|----12----------------------------|
B|----------------------------------|--------------2---------2---------|
G|--------------1-------------------|--------------2---------2---------|
D|----------------------------------|--------------4---------4---------|
A|---------2------------------------|----------------------------------|
E|----0============================-|----------------------------------|
 |    |    |    |    |    |    |    |    |    |    |    |    |    |    |
R     p    p    i    m    m              m         m         m
                                                   i         i
                                                   p         p
                                                   1         1
           2    1         4/4            4         1         1
                                                   3         3

[45]

E|----------------------------------|--------------0---------9-/-12----|
B|----------------------------------|--------------0-------------------|
G|------------------------4-/--6----|----6h8p6---------------6-/-9-----|
D|---------4----6----7--------------|--------------6---------7-/-11----|
A|----0-----------------------------|----------------------------------|
E|----------------------------------|----7-----------------------------|
 |    |    |    |    |    |    |    |    |    |    |    |    |    |    |
R     p    m    i    m    i              a         a         a    a
                                         p         m         i    i
                                                   p         p    p

L          1    3    4    1    1         2h4       2         4
                                         1                   1
                                                             2
[47]
                                                             II.........
E|----11---/----9-------------------|----0============================-|
B|------------------------4---------|----0============================-|
G|----8----/----6---------2---------|----1============================-|
D|----9----/----7---------4---------|----2============================-|
A|------------------------2---------|--------------2-------------------|
E|----------------------------------|------------------------4---------|
 |    |    |    |    |    |    |    |    |    |    |    |    |    |    |
R     a         a         a              a         p         p
      i         i         m              m
      p         p         i              i
                          p              p                   p
L     4         4         4              1         2         4
      1         1         1              3
      2         2         3
                          1

[49]  ending 1


E|--------------12-p-11---14-p-12--||
B|---------------------------------||
G|--------------------------------*||  Repeat part B, then
D|--------------------------------*||  play ending 2
A|---------------------------------||
E|----0===========================-||
 |    |    |    |    |    |    |    |
R     p         a         a
L               2    1    4    2


[50]  ending 2                           Play Part C (twice)


E|----0============================-|----------------------------------|
B|----0============================-|----------------------------------|
G|----1-----------------------------|----------------------------------|
D|----2-----------------------------|----------------------------------|
A|--------------2-------------------|----------------------------------|
E|------------------------4---------|----0============================-|
 |    |    |    |    |    |    |    |    |    |    |    |    |    |    |
R     a         p         p              p
      m
      i
      p
L     1         2         4
      3


Part C (play twice)
[52]
     II................................................................
E||-------------2---------2---------|--------------2---------2---------|
B||-------------4---------4---------|--------------4---------4---------|
G||*--------------------------------|----4============================-|
D||*--4============================-|----------------------------------|
A||---2============================-|----------------------------------|
E||---------------------------------|----2============================-|
 |    |    |    |    |    |    |    |    |    |    |    |    |    |    |
R     i         a         a              i         a         a
      p         m         m              p         m         m
L     3         1         1              3         1         1
      1         4         4              1         4         4

[54]
.......................................................................
E|--------------2---------2---------|----------------------------------|
B|--------------2---------2---------|----2============================-|
G|----2============================-|----------------------------------|
D|----------------------------------|--------------6---------4---------|
A|----4============================-|----------------------------------|
E|----------------------------------|----2============================-|
 |    |    |    |    |    |    |    |    |    |    |    |    |    |    |
R     i         a         a              a         m         m
      p         m         m              p
L     1         1         1              1         4         2
      3         1         1              1


[56]
.......................................................................
E|--------------2---------2---------|--------------2---------2---------|
B|--------------4---------4---------|--------------4---------4---------|
G|----------------------------------|----4============================-|
D|----4============================-|----------------------------------|
A|----2============================-|----------------------------------|
E|----------------------------------|----2============================-|
 |    |    |    |    |    |    |    |    |    |    |    |    |    |    |
R     i         a         a              i         a         a
      p         m         m              p         m         m

L     3         1         1              3         1         1
      1         4         4              1         4         4


[58]                                         I.............................
E|----------------------------------|--------------4---------2---------|
B|----------------------------------|----5============================-|
G|----3h4p3-----2---------3---------|----------------------------------|
D|----------------------------------|----------------------------------|
A|----4============================-|----------------------------------|
E|----------------------------------|----2============================-|
 |    |    |    |    |    |    |    |    |    |    |    |    |    |    |
R     m         i         m              m         a         a
      p                                  p
L     2h4       1         2              4         3         1
      3                                  1

[60]
.....................................    IV.............................
E|----------------------------------|----------------------------------|
B|----4============================-|----4============================-|
G|--------------4---------4---------|--------------6---------6---------|
D|--------------4---------4---------|--------------5---------5---------|
A|----2============================-|----------------------------------|
E|----------------------------------|----6============================-|
 |    |    |    |    |    |    |    |    |    |    |    |    |    |    |
R     a         m         m              a         m         m
      p         i         i              p         i         i
L     4         3         3              1         4         4
      1         2         2              3         2         2

[62].................................
E|----------------------------------|----6==================-4---------|
B|----4=============================|--------------5---------5---------|
G|--------------4---------4---------|--------------6---------6---------|
D|--------------6---------6---------|----------------------------------|
A|----------------------------------|----------------------------------|
E|----4============================-|----0============================-|
 |    |    |    |    |    |    |    |    |    |    |    |    |    |    |
R     a         m         m              a         m         a
      p         i         i              p         i         m
                                                             i
L     1         1         1              4         2         1
      1         3         3                        3         2
                                                             3


[64]  II........                         II.............................
E|----2-----------------------------|----------------------------------|
B|----4-----------------------------|----4==================-2---------|
G|--------------4----/----9---------|------------------------3---------|
D|----4-----------------------------|----4---------3---------2---------|
A|--------------6----/----11--------|----------------------------------|
E|----2-----------------------------|----2==================-2---------|
 |    |    |    |    |    |    |    |    |    |    |    |    |    |    |
R     a         i         i              m         i         a
      m         p         p              i                   m
      i                                  p                   i
      p                                                      p
L     1         1         1              4         2         1
      4         3         3              3                   2
      3                                  1                   1
      1                                                      1

[66]  IV.............................

E|----------------------------------|---------------------------------||
B|----------------------------------|---------------------------------||
G|----4============================-|--------------------------------*||
D|----4========-4==================-|--------------------------------*||
A|----6==================-6========-|---------------------------------||
E|----7-----------------------------|----7----------------------------||
 |    |    |    |    |    |    |    |    |    |    |    |    |    |    |
R     a         m         i              p
      m
      i
      p
L     1         1         3              4
      1
      3
      4
                                         Part D
[68]
E|----7============================-|----7============================-|
B|--------------9---------9---------|--------------9---------9---------|
G|----9============================-|----------------------------------|
D|----------------------------------|----9============================-|
A|----------------------------------|----------------------------------|
E|----------------------------------|----------------------------------|
 |    |    |    |    |    |    |    |    |    |    |    |    |    |    |
R     m         i         i              m         i         i
      p                                  p
L     1         4         4              1         4         4
      3                                  3


[70]
E|----7============================-|--------------11---12---13---14---|
B|--------------10--------10--------|----0============================-|
G|----11===========================-|----------------------------------|
D|----------------------------------|----------------------------------|
A|----------------------------------|----------------------------------|
E|----------------------------------|----------------------------------|
 |    |    |    |    |    |    |    |    |    |    |    |    |    |    |
R     m         i         i              i         m    i    m    i
      p
L     1         3         3                        1    2    3    4
      4

[72]  IX.............................   II.............................

E|----12-p-11-----------------------|--------------2-------------------|
B|--------------10--------10--------|-------------------4----5--p--2---|
G|----------------------------------|----------------------------------|
D|--------------9---------9---------|----------------------------------|
A|----9============================-|----2============================-|
E|----------------------------------|----------------------------------|
 |    |    |    |    |    |    |    |    |    |    |    |    |    |    |
R     a         m         m              p         a    m    i
      p         p         p
L     4    3    2         2              1         1    3    4    1
      1         1         1

[74]
E|----------------------------------|----------------------------4/7---|
B|----5-p--4------------------------|----------------------------------|
G|--------------1---------1---------|----------------------------------|
D|------------------------2---------|----------------------------------|
A|----------------------------------|----------------------------------|
E|----0============================-|----4/7---------------------------|
 |    |    |    |    |    |    |    |    |    |    |    |    |    |    |
R     a         m         m              p                        m
                          i
L     4    3    1         1              4                        1
                          2

[76]
E|----7============================-|----7============================-|
B|--------------9---------9---------|--------------9---------9---------|
G|----9============================-|----------------------------------|
D|----------------------------------|----9============================-|
A|----------------------------------|----------------------------------|
E|----------------------------------|----------------------------------|
 |    |    |    |    |    |    |    |    |    |    |    |    |    |    |
R     m         i         i              m         i         i
      p                                  p
L     1         4         4              1         4         4
      3                                  3

[78]

E|----7============================-|--------------11---12---13---14---|
B|--------------10--------10--------|----0============================-|
G|----11===========================-|----------------------------------|
D|----------------------------------|----------------------------------|
A|----------------------------------|----------------------------------|
E|----------------------------------|----------------------------------|
 |    |    |    |    |    |    |    |    |    |    |    |    |    |    |
R     m         i         i              i         m    i    m    i
      p

L     1         3         3                        1    2    3    4
      4

[80]  IX.............................    VII............................
E|----12-p-11-----------------------|----9-p--7------------------------|
B|--------------10--------10--------|----------------------------------|
G|----------------------------------|--------------8---------8---------|
D|--------------9---------9---------|--------------7---------7---------|
A|----9============================-|----------------------------------|
E|----------------------------------|----7============================-|
 |    |    |    |    |    |    |    |    |    |    |    |    |    |    |
R     a         m         m              a         m         m
      p         p         p              p         i         i
L     4    3    2         2              3    1    2         2
      1         1         1              1         3         3


     Ending 1
[82]                                  Repeat part C, then play ending 2
E|----0============================-|------------------------4/7------||
B|----0============================-|---------------------------------||
G|----1============================-|--------------------------------*||
D|----2============================-|--------------------------------*||
A|--------------2-------------------|---------------------------------||
E|------------------------4---------|----0===========================-||
 |    |    |    |    |    |    |    |    |    |    |    |    |    |    |
R    a          p         p              p                   m
     m
     i
     p
L    1          2         4                                  1
     3

      Ending 2
[84]                                    Return to Part A (Play Once)
E|----0============================-|----------------------------------|
B|----0============================-|----------------------------------|
G|----1============================-|------------------------2/5-------|
D|----2============================-|----------------------------------|
A|--------------2-------------------|----------------------------------|
E|------------------------4---------|----0============================-|

 |    |    |    |    |    |    |    |    |    |    |    |    |    |    |
R    a          p         p              p                   i
     m
     i
     p
L    1          2         4                                  1
     3

-----
notes
-----

Intro
Tarrega actually wrote the nokia ring tone heard everywhere today.
In Grand Waltz, you will play along the entire neck.
You will also play certain parts with the melody in a fixed barred
position for multiple measures.Be sure to hold double notes
suspension for a full measure (bass/treble). Finally you will
get to play the famous Nokia Ring Tone.

Techniques
There are 4 parts to this song. Each Part played twice in this order
(A-BB-CC-DD-A).

Part A
Double Note suspension. Longest Part
Bar[4]-[11] Play the melody while holding the barred chords for
8 straight measures.
Bar[14]-[17] Nokia ring tone. Ends with a harmonic.
Lightly touch the string and plucK (bell like sound).

Part B
Pull offs and hammer ons. Chord slide. Hardest part
Bar[37] Barred chord pull off is a stretch. Make sure you hold
the bass note at 9th fret (after the slide)
while stretching your pinky to the 14th fret (pull off).
Bar[46]-[47] Chord slide. keep your 3 fingers locked and slide
the chord to different frets.

Part C
Double note suspension
Bar[52]-[62] Play the melody while holding the barred chords
for 10 straight measures.
Painful to wrist at first.

Part D
Easiest part
Bar[72]-[73] 9th to 2nd fret (barred chords) jump from right
to left.

Tips
Play the 4 parts separately until you have reached fluidity.
Work on each part and piece them
together at the end. Loop each part mulitple times.


www.chrisliang.com
Добавлено: 07.05.2012
Другие материалы по этой песне:

Страница создана 07.05.2012
http://primanota.ru/francisco-tarrega/grand-waltz-gran-vals-chords.htm
Привет, Гость.
Предлагаем пройти революционный курс по гитаре.
Подарок от PrimaNota.Ru, забирай!