PrimaNota.ru - самый крупный в мире бесплатный архив песенных текстов, аккордов, табулатур и нот


Francisco Tarrega - Prelude 35 Oremus In D Minor - таба, видео

Регистрация Запомнить меня
Войти через:  Facebook Google Twitter Vk Yandex Mail.ru

Francisco Tarrega - Prelude 35 Oremus In D Minor - таба, видео

Печатать
Просмотров: 109
E-|---Song:-Prelude-(Endecha)----------------------|
A-|---Composer:-Francisco Tarrega------------------|
D-|---Transcription-by:Christian Liang-------------|
G-|---E-Mail:christian.liang@gmail.com-------------|
B-|---http://www.classclef.com---------------------|
E-|---Enjoy!---------------------------------------|


Prelude (Oremus) Lento by Francisco Tarrega (1852-1909)

Drop D. 9 Bars in Total. 3 barre chords.
Prelude Oremus is predominately a left hand song,
Focus on landing the chords in time.

Hardest Measures. Bar[3] and Bar[7].

[1]                                                   VII.........

e|-------------------------13----|-13------12------10------8-----|
G|-10------9-------10------10----|-11------11------10------------|
B|-10------10------10------------|-------------------------8-----|
D|-----0-------0-------0-------0-|-------------------------------|
A|-------------------------------|-----10------10------8-------8-|
D|-------------------------------|-------------------------------|
   |   |   |   |   |   |   |   |   |   |   |   |   |   |   |   |
R  m   p   m   p   m   p   m   p   m   p   m   p   m   p   m   p
   i       i       i       i       i       i       i       i

L  4       2       4       4       4   1   4   1   4   1   1   1
   3       3       3       2       2       2       3       1

[3]
                   III.....I........
E|-6-------5-------3-------2-----|-3-------1-------1-------0-----|
B|---------4---------------1-----|---------3-------3-------2-----|
G|-7---------------3-------------|-3-----------1-------2---------|
D|-----5---------------0-------0-|-----5-------------------------|
A|-------------3-----------------|-----------------------------0-|
D|-------------------------------|-------------------------------|
  |   |   |   |   |   |   |   |   |   |   |   |   |   |   |   |

R m   p   m   p   m   p   m   p   m   p   m   p   m   p   m   p
  i       i       i       i       i       i       i       i
L 2   1   4   1   4       2       1   3   1   1   1   2   3
  3       2       3       1       1       4       4

[5]

e|-1-------0-------1-------6-----|-6---------------5-------------|
G|-3-------2-------3-------6-----|-5-------5-------5-------5-----|
B|-------------------------------|-------------------------------|
D|-----0-------0-------0-------0-|-------------------------------|
A|-------------------------------|-----3-------3-------3-------3-|
D|-------------------------------|-------------------------------|
   |   |   |   |   |   |   |   |   |   |   |   |   |   |   |   |

R  m   p   m   p   m   p   m   p   m   p   m   p   m   p   m   p
   i       i       i       i       i       i       i       i

L  1       3       1       4       4   1   3   1   4   1   3   1
   4               4       3       3               3

[7]
                                   Ending 1
E|-5-----------------------3-----|-1-------1-------0------------||
B|-3-------2-------3-------3-----|-3-------3-------2-----------*||
G|-------------------------------|-------------2-------2--------||
D|-------------------------------|------------------------------||
A|-----1-------1-------1-------1-|-----0-------------------0---*||
D|-------------------------------|------------------------------||
   |   |   |   |   |   |   |   |   |   |   |   |   |   |   |   |
R  m   p   i   p   i   p   m   p   m   p   m   p   m   p   p
   i                       i       i       i       i
L  4   1   2   1   3   1   4   1   1       1   2   3   2
   2                       3       3       3


[9] Ending 2

e|-1-------0---------------------|
G|-3-------2-------3-------------|
B|-------------0-----------------|
D|-----------------3-------------|
A|-----0---------------5---------|
D|-------------------------0-----|
   |   |   |   |   |   |   |   |
R  m   p   m   p   i   p   p
   i       i       p

L  1       2       2   4
   4               1
Добавлено: 11.03.2012
Другие материалы по этой песне:
  • Аккорды и текст

Страница создана 11.03.2012
http://primanota.ru/francisco-tarrega/prelude-35-oremus-in-d-minor-chords.htm
Привет, Гость.
Предлагаем пройти революционный курс по гитаре.
Подарок от PrimaNota.Ru, забирай!