PrimaNota.ru - самый крупный в мире бесплатный архив песенных текстов, аккордов, табулатур и нот


Francisco Tarrega - Etude In E Minor - таба, видео

Регистрация Запомнить меня
Войти через:  Facebook Google Twitter Vk Yandex Mail.ru

Francisco Tarrega - Etude In E Minor - таба, видео

Печатать
Просмотров: 1188
Artist: Francisco Tarrega

Song: Etude in E minor

Tabbed by: Conor123096

Tuning: standard

----------------------------------------------------------------------------
                             PART ONE

                             1ST BAR
e--0--------3-------3----------3--------2-------2--------------------------|
B-----0--------0-------0----------1--------1-------1-----------------------|
G--------0--------0-------0----------2--------2-------2--------------------|
D------------------------------0-------------------------------------------|
A--------------------------------------------------------------------------|
E--0-----------------------------------------------------------------------|



                             2ND BAR 
e--5--------3---------2----------7-------7-------7-------------------------|
B-----4--------4---------4----------0-------0-------0----------------------|
G--------2--------2---------2----------0-------0-------0--------X2---------|
D--------------------------------------------------------------------------|
A--2-----------------------------------------------------------------------|
E--------------------------------0-----------------------------------------|

----------------------------------------------------------------------------

                             PART TWO


                             1ST BAR
e--0---------3--------7----------7--------5--------8-----------------------|
B-----0---------0--------0----------5--------5--------5--------------------|
G--------0---------0--------0----------5--------5--------5-----------------|
D--------------------------------------------------------------------------|
A--------------------------------0-----------------------------------------|
E--0-----------------------------------------------------------------------|



                             2ND BAR       
e--2--------3--------5---------5---------3--------7------------------------|
B-----1--------1--------3---------0---------0--------0---------------------|
G--------2--------2--------5---------0---------0--------0------------------|
D--0-----------------------------------------------------------------------|
A--------------------------------------------------------------------------|
E------------------------------3-------------------------------------------|

----------------------------------------------------------------------------
                      Do PART ONE with this ending intead of playing the    
                      2ND BAR of PART ONE

                           ENDING:
                       
                      (Play this part very slowly)



e--5--------3--------2----------0-----------------NH=---12-----------------|
B-----4--------4--------4-----------0-------------NH=---12-----------------|
G--------2--------2--------2------------0---------NH=---12-----------------|
D-------------------------------------------------NH=---12-----------------|
A--2-----------------------------------------------------------------------|
E-------------------------------0------------------------------------------|


NH: Natural Harmonic
  

Добавлено: 27.02.2012
Другие материалы по этой песне:

Страница создана 27.02.2012
http://primanota.ru/francisco-tarrega/etude-in-e-minor-chords.htm
Привет, Гость.
Предлагаем пройти революционный курс по гитаре.
Подарок от PrimaNota.Ru, забирай!