PrimaNota.ru - самый крупный в мире бесплатный архив песенных текстов, аккордов, табулатур и нот


Francisco Tarrega - Prelude 34 Endecha In D Minor - таба, видео

Регистрация Запомнить меня
Войти через:  Facebook Google Twitter Vk Yandex Mail.ru

Francisco Tarrega - Prelude 34 Endecha In D Minor - таба, видео

Печатать
Просмотров: 137
Уроки эстрадного вокала в Санкт-Петербурге
E-|---Song:-Prelude-(Endecha)----------------------|
A-|---Composer:-Francisco Tarrega------------------|
D-|---Transcription-by:Christian Liang-------------|
G-|---E-Mail:christian.liang@gmail.com-------------|   
B-|---http://www.classclef.com---------------------|
E-|---Enjoy!---------------------------------------|


Prelude 34 in D minor (Endecha) by Francisco Tarrega (1852-1909)



[1]						VII                                 


e|----------------5--|-10----------------|-------------------|
G|-------------------|-----10---8--------|-------------------|
B|-------------------|--------------10---|--9----7------7----|
D|-------------------|-------------------|-------7-----------|
A|-------------------|-------------------|-------8-----------|
E|-------------------|-------------------|--0----------------|

L                 1     4   3   1   4       3    1      3       
						 1                                  
						 2                                       

R                 i     m   i   m   i       m    m      i       
                                            p    i                                  
                                                 p                                       

[3]
                        V
e|--------------5----|--8----6-----------|-------------------|
G|--5---7---8--------|-------5------10---|--8----------------|
B|-------------------|-------7-----------|------10---9---7---|
D|-------------------|-------------------|-------------------|
A|-------------------|-------------------|-------------------|
E|-------------------|--5=====-----------|-------------------|

L  1   3   4   1       1    2      4       2   4    3   1  
                       4    1
                            3
R  m   i   m   i       m    m      m       i   m    i   m
                       p    i
                            p


[7]                   [8]           IX      X                       

e|-------------------|--0-----------9----|--12-p-10-------13-|
G|---------------8---|------11--10--10---|--10---------------|
B|--7----6-------7---|--6---9---7---9----|--10---------------|
D|--0------------8---|--7----------------|-------------------|
A|-------7-----------|------10--8---0----|-------------------|
E|--8----7-----------|-------------------|--0----------------|

LH  1    1       4      1   4   4   1       4  p  1       4  
    2    3       2      2   1   1   4       1                       
         2       3          2   2   1       1 			    

RH  m    m       m      m   m   m   a       a             a                     
    i    i       i      i   i   i   m       m                       
    p    p       p      p   p   p   i       i                       
                                    p       p
 
[9]     VIII.........

e|p-12--8----10------|------0----1-------|-------------------|
G|------10---11--10--p--8-------------4--p--3-----------2----|
B|-------------------|------3----2-------|-----2---3----0----|
D|-----------8-------|-----------3-------|-----0---0---------|
A|------8------------|------3------------|--------------1----|
E|-------------------|-------------------|-----4---5---------|

Lp  3   1    3   4   p  1   4    1    4  p  3  1   1    4
        3    4              3    2             3   3    1
        1    1                   3
R   m    m   i          i    m    i        m   m    m    
    i    i              p    i             i   i    i
    p    p                   p             p   p    p


[13]         III....    II (Ending 1)       II (Ending 2)

e|-------3---5---6---|--------------5----|-------------------|
G|--3----2---3---3---|--2----------------|--2----------------|
B|--2------------3---|--2----------------|--2----------------|
D|--3----2---3---5---|--2----------------|--2----------------|
A|--0----------------|--0----------------|--0----------------|
E|-------------------|-------------------|-------------------|

L   4    4   4   4      1           4       1                   
    2    2   1   1      1                   1                   
    3    1   1   1      1                   1                   
                 3

R   a    m   m   a      a           i       a                     
    m    i   i   m      m                   m                   
    i    p   p   i      i                   i                   
    p            p      p                   p                   

[15]

e|-------------------|
G|--3----------------|
B|--2----------------|
D|--3----------------|
A|-------------------|
E|--0----------------| 

L   4
    2
    3

R   a
    m
    i
    p



Technique
Although slow, it is not a song to take lightly. In fact it's more 
difficult with a slower tune. Notes must be suspended to fill the 
gaps. Mistakes are more apparent-no pressure-but be beware on 
mellow ditties. Prelude (Endecha) is tuned to Drop D (The top 
string or low E string tuned to D). This song is predominatly 
harder on the left hand. Play this song twice with different 
endings. 8 Barre Chords, 4 pull offs and no hammer ons. 


Tips
Bar [8] *Took me a while to nail it. fingering is important
Bar [13] **5 chords. fingering is crucial. Took me a while 
to get the execution.
Добавлено: 13.06.2012
Другие материалы по этой песне:
  • Аккорды и текст

Страница создана 13.06.2012
http://primanota.ru/francisco-tarrega/prelude-34-endecha-in-d-minor-chords.htm
Привет, Гость.
Предлагаем пройти революционный курс по гитаре.
Подарок от PrimaNota.Ru, забирай!