PrimaNota.ru - самый крупный в мире бесплатный архив песенных текстов, аккордов, табулатур и нот


Francisco Tarrega - Malaguena - таба, видео

Регистрация Запомнить меня
Войти через:  Facebook Google Twitter Vk Yandex Mail.ru

Francisco Tarrega - Malaguena - таба, видео

Печатать
Просмотров: 541
Авторы музыки: Francisco Tárrega

Artist: Francisco Tarrega 
Song: Malagueña
Email: LiquIdfir3@msn.com
Tuning: Standard 
 Finger picked, nylon gtr.
     ~ = trill

     ~
e|---0---------------------------------|
B|---0---0---3--1--0---1--------3-1-0--|
G|---1-------2---------2--2-1-2--------|
D|---2-------3---------3---------------|
A|---2---------------------------------|
E|---0---------------------------------|

e|---0--------|
B|---0--------|
G|---1--------|
D|---2--2--2--|
A|---2--2--2--|
E|---0--0--0--|
        /
        /<----32nd note i think
        /

this speeds up to about 120

e|----0----0----0----0-|----0----0-----0-|---0----0---0-|
B|---------------------|-----------------|--------------|
G|---------------------|-----------------|--------------|
D|---------------------|-----------------|--------------|
A|-----------2---------|------------2----|-0---3----2---|
E|---0--4--------0-----|--0---4----------|--------------|

                     ~
e|-----0---0-----0-|-0-|
B|-----------------|-0-|
G|-----------------|-1-|
D|-----------------|-2-|
A|---0-------------|-2-|
E|------3----1-----|-0-|

e|---12--|-0-1-3-1--0--|----------0-------------|-0-0-0-|
B|-------|----------0--|-0-3-1-0--1-------3-1-0-|-0-0-0-|
G|-------|----------1--|----------2-2-1-2-------|-1-1-1-|
D|-------|----------2--|----------2-------------|-2-2-2-|
A|-------|----------2--|----------0-------------|-2-2-2-|
E|-------|----------0--|------------------------|-0-0-0-|

e|-----0---0---0---|---0---0---0--|---0---0----0--|---0---0-----0-|
B|-----------0-----|---------0----|-----1----0----|---------------|
G|-------1---------|-----1--------|-2-------------|-2---0---------|
D|---2-------------|-2------------|---------------|---------3-----|
A|-----------------|--------------|---------------|---------------|
E|-----------------|--------------|---------------|---------------|
play 4times         ^
                    accel. here

      ~
e|----0--0--0--0-|-
B|----0--0--0--0-|-
G|----1--1--1--1-|-
D|----2--2--2--2-|-
A|----2--2--2--2-|-
E|-0--0--0--0--0-|-

      ~               ~              ~               ~
e|----0--0--0--0-|----0--0--0--0-|---0--0--0--0-|----0-0-0-0-|
B|----0--0--0--0-|----0--0--0--0-|---1--1--1--1-|----1-1-1-1-|
G|----1--1--1--1-|----1--1--1--1-|---2--2--2--2-|----2-2-2-2-|
D|----2--2--2--2-|----2--2--2--2-|---2--2--2--2-|----2-2-2-2-|
A|----2--2--2--2-|----2--2--2--2-|---0--0--0--0-|----0-0-0-0-|
E|-0--0--0--0--0-|-0--0--0--0--0-|-0------------|--0---------|

End on:
      
e|----0-|
B|----0-|
G|----1-|
D|----2-|
A|----2-|
E|----0-|




Добавлено: 26.03.2012
Другие материалы по этой песне:

Страница создана 13.03.2012
http://primanota.ru/francisco-tarrega/malaguena-chords.htm
Привет, Гость.
Предлагаем пройти революционный курс по гитаре.
Подарок от PrimaNota.Ru, забирай!