PrimaNota.ru - самый крупный в мире бесплатный архив песенных текстов, аккордов, табулатур и нот


Four Year Strong - So Much For The Afterglow - текст песни, бас-таба, видео

Регистрация Запомнить меня
Войти через:  Facebook Google Twitter Vk Yandex Mail.ru

Four Year Strong - So Much For The Afterglow - текст песни, бас-таба, видео

Печатать
Просмотров: 117
Авторы музыки: Everclear
Авторы текста: Art Alexakis
here's the first song off their new album "explains it all".


first the intro 

then start at 00:41 with

verse 1
G|---------------------|
D|---------------------|
A|------5555------2222-|
E|-5555------2222------|

G|--------------------|
D|--------------------|
A|------5555-----2x---|
E|-5555------2x-------|

G|----------------------------------|
D|----------------------------------|
A|------5555---------------------5x-|
E|-5555------2222-1111---1x---------|


chorus
G|---------------------|
D|---------------------|
A|------5555------2222-|
E|-5555------2222------|

G|--------------|
D|--------------|
A|------5555----|
E|-5555------1~-|

verse 2
G|---------------------|
D|---------------------| x3
A|------5555------2222-|
E|-5555------2222------|

G|-----------------|
D|-----------------|
A|------5555----2--|
E|-5555-------22---|

G|---------------------|
D|---------------------|
A|------5555------2222-|
E|-5555------2222------|

G|--------------------|
D|--------------------|
A|------5555-----2x---|
E|-5555------2x-------|

G|-----------------------------|
D|-----------------------------|
A|------5555----------------5x-|
E|-5555------2222-1111--1x-----|


chorus
G|---------------------|
D|---------------------| x4
A|------5555------2222-|
E|-5555------2222------|

G|----|
D|----|
A|----|
E|-55-|


pause till 01:49, then

breakdown
G|-----------------------------------------|
D|-----------------------------------------| x2
A|------5555-7777-5555------5555------2222-|
E|-5555----------------5555------2222------|


short pause again till 02:06, then
G|---------------------|
D|---------------------| x4
A|------5555------2222-|
E|-5555------2222------|

G|------------------------------|
D|------------------------------| (at this part you slow down while playing, 
A|------5555--------------------|  you'll figure out the timing pretty fast)
E|-5555------2222-1-1-1-1--0~~~-|

G|-----|
D|-----| (hit at 2:23)
A|-5~~-|
E|-----|


chorus
G|---------------------|
D|---------------------| x8
A|------5555------2222-|
E|-5555------2222------|

end
G|----|
D|----|
A|----|
E|-55-|


yeah. sounds nice and clean, doesn't it? have fun or feed my back!
Добавлено: 26.02.2012
Другие материалы по этой песне:
  • Аккорды и текст

Страница создана 26.02.2012
http://primanota.ru/four-year-strong/so-much-for-the-afterglow-chords.htm
Привет, Гость.
Предлагаем пройти революционный курс по гитаре.
Подарок от PrimaNota.Ru, забирай!