PrimaNota.ru - самый крупный в мире бесплатный архив песенных текстов, аккордов, табулатур и нот


Four Year Strong - Your Song - текст песни, таба, видео

Регистрация Запомнить меня
Войти через:  Facebook Google Twitter Vk Yandex Mail.ru

Four Year Strong - Your Song - текст песни, таба, видео

Печатать
Просмотров: 232
Your Song by Four Year Strong
June 23, '09
My first try at this song. Corrections are welcomed. Tabbed by Noel C.
I heard this song is done in a different tuning but
I made it Drop D since I already had parts of it figured out.
I'm not really sure about the post
breakup but I like it how I tabbed it.

Intro:

(When you know...yourself)
e|---------------------------------------------------------------------------|
B|---------------------------------------------------------------------------|
G|---------------------------------------------------------------------------|
D|---------------------------------------------------------------------------|
A|---------------------------------------------------------------------------|
D|-8-8-8-8-8-8-8-8-10-10-10-10-10-10-10--1-1--1--1-1--1--3-3-3---------------|

(I have nothing...you're okay)
e|---------------------------------------------------------------------------|
B|---------------------------------------------------------------------------|
G|---------------------------------------------------------------------------|
D|---------------------------------------------------------------------------|
A|---------------------------------------------------------------------------|
D|-5-5-5-1-1-1-3-3-3-5-5-5-3-3-3-1--1-1--1--1-1--1---------------------------|

e|---------------------------------------------------------------------------|
B|---------------------------------------------------------------------------|
G|-3------------------------------------3~-----------------------------------|
D|-3-(3)-3-/-5-1----1-1--1-1-1----------3~-----------------------------------|
A|-1-(3)-3-/-5-1----1-1--1-1-1----(x4)--1~-----------------------------------|
D|---(3)-3-/-5-1----1-1--1-1-1-----------------------------------------------|

Verse:

(You've got...)                   (You just kill me...)
e|---------------------------------------------------------------------------|
B|---------------------------------------------------------------------------|
G|---------------------------------------------------------------------------|
D|-8-8--8-8--8-----------1-1-1-----1-1---------------------------------------|
A|-x-x--x-x--x--(x4)-----1-1-1-----1-1-(x16)---------------------------------|
D|-8-8--8-8--8-----------1-1-1-----1-1---------------------------------------|           
            . . .


(I'm not getting any closer...)                     (To you again...before)
e|---------------------------------------------------------------------------|
B|---------------------------------------------------------------------------|
G|---------------------------------------------------------------------------|
D|-8-8--8-8--12--10-10--12-12-/-13-\-12-\-10---------1-1---------------------|
A|-x-x--x-x--xx--xx-xx--xx-xx-/-xx-\-xx-\-xx--(x2)---1-1--(x16)--------------|
D|-8-8--8-8--12--10-10--12-12-/-13-\-12-\-10---------1-1---------------------|

(Like times of...kissed her's)
e|---------------------------------------------------------------------------|
B|---------------------------------------------------------------------------|
G|---------------------------------------------------------------------------|
D|-3-3-3-3-3-3-3-3-3-3-3-3-3-3-3-3-3-5-5-5-5--1------------------------------|
A|-1-1-1-1-1-1-1-1-1-1-1-1-1-1-1-1-1-3-3-3-3--1------------------------------|
D|--------------------------------------------1------------------------------|
     . . . . . . . . . . . . . . . . . . . .

(But did she... all along)
e|---------------------------------------------------------------------------|
B|---------------------------------------------------------------------------|
G|---------------------------------------------------------------------------|
D|-1-1-1-1-1-1-1-1-1-1-1-1---1--1----1-1-1-1-1-1-1-1-1-1-1-1-1-1-1-----------|
A|-1-1-1-1-1-1-1-1-1-1-1-1---1--1----1-1-1-1-1-1-1-1-1-1-1-1-1-1-1-----------|
D|-1-1-1-1-1-1-1-1-1-1-1-1---1--1----1-1-1-1-1-1-1-1-1-1-1-1-1-1-1-----------|
   . . . . . . . . . . . .           . . . . . . . . . . . . . . .

(And I'm holding...)
e|---------------------------------------------------------------------------|
B|---------------------------------------------------------------------------|
G|---------------------------------------------------------------------------|
D|-3-3-3-3-3-3-3-3-3-5-5-5-5-5-5-7-7-7-7-7-7-7--1----------------------------|
A|-1-1-1-1-1-1-1-1-1-3-3-3-3-3-3-5-5-5-5-5-5-5--1----------------------------|
D|----------------------------------------------1----------------------------|
     . . . . . . . .  . . . . . .  . . . . . .

(Responsible...all the things)
e|---------------------------------------------------------------------------|
B|---------------------------------------------------------------------------|
G|---------------------------------------------------------------------------|
D|-1-1-1-1-1-1-1-1-1-1-1-1---1--1----1-1-1-1-1-1-1-1-1-1-1-1-1-1-1-----------|
A|-1-1-1-1-1-1-1-1-1-1-1-1---1--1----1-1-1-1-1-1-1-1-1-1-1-1-1-1-1-----------|
D|-1-1-1-1-1-1-1-1-1-1-1-1---1--1----1-1-1-1-1-1-1-1-1-1-1-1-1-1-1-----------|
   . . . . . . . . . . . .           . . . . . . . . . . . . . . .

(Become!...)
e|---------------------------------------------------------------------------|
B|---------------------------------------------------------------------------|
G|---------------------------------------------------------------------------|
D|-1-1-1-1-1-1-1-1--3-3-3-3-3-3-3-3---3-/-5-5--3----3-/-5-5--3---------------|
A|-1-1-1-1-1-1-1-1--3-3-3-3-3-3-3-3---3-/-5-5--3----3-/-5-5--3-(x3)----------|
D|-1-1-1-1-1-1-1-1--3-3-3-3-3-3-3-3---3-/-5-5--3----3-/-5-5--3---------------|
 [Slide to the first set of 5's and then strum them]

(Blame for!)
e|---------------------------------------------------------------------------|
B|---------------------------------------------------------------------------|
G|--------------------------------------------------------3------------------|
D|-1-1-1-1-1-1-1-1--3-3-3-3-3-3-3-3---1--1-1---1--1-1-1---3------------------|
A|-1-1-1-1-1-1-1-1--3-3-3-3-3-3-3-3---1--1-1---1--1-1-1---1------------------|
D|-1-1-1-1-1-1-1-1--3-3-3-3-3-3-3-3---1--1-1---1--1-1-1----------------------|           
                            . .      . . .


e|----X--X--X--X----|
B|----X--X--X--X----|
G|----X--X--X--X----|
D|----X--X--X--X----|
A|----X--X--X--X----|
D|----X--X--X--X----|

Chorus:

(When you know...yourself)
e|---------------------------------------------------------------------------|
B|---------------------------------------------------------------------------|
G|-3-3-3-3-3-3-3-3---5-5-5-5-5-5-5-5-----------------------------------------|
D|-3-3-3-3-3-3-3-3---5-5-5-5-5-5-5-5---1-1--1---1-1--1----3-3-3--------------|
A|-1-1-1-1-1-1-1-1---3-3-3-3-3-3-3-3---1-1--1---1-1--1----3-3-3--------------|
E|-------------------------------------1-1--1---1-1--1----3-3-3--------------|

(I have nothing...you're okay)
e|---------------------------------------------------------------------------|
B|---------------------------------------------------------------------------|
G|---------------------------------------------------------------------------|
D|-5-5-5--1-1-1--3-3-3--5-5-5--3-3-3-1--1-1--1---1-1--1----------------------|
A|-5-5-5--1-1-1--3-3-3--5-5-5--3-3-3-1--1-1--1---1-1--1--(x2)----------------|
E|-5-5-5--1-1-1--3-3-3--5-5-5--3-3-3-1--1-1--1---1-1--1----------------------|


e|---------------------------------------------------------------------------|
B|---------------------------------------------------------------------------|
G|---------------------------------------------------------------------------|
D|-8-8--8-8---12---10-10---8-8-\---------------------------------------------|
A|-x-x--x-x---xx---xx-xx---x-x-----------------------------------------------|
E|-8-8--8-8---12---10-10---8-8-\---------------------------------------------|

Verse:

(Like times of...kissed her's)
e|---------------------------------------------------------------------------|
B|---------------------------------------------------------------------------|
G|---------------------------------------------------------------------------|
D|-3-3-3-3-3-3-3-3-3-3-3-3-3-3-3-3-3-5-5-5-5--1------------------------------|
A|-1-1-1-1-1-1-1-1-1-1-1-1-1-1-1-1-1-3-3-3-3--1------------------------------|
D|--------------------------------------------1------------------------------|
     . . . . . . . . . . . . . . . . . . . .

(But did she... all along)
e|---------------------------------------------------------------------------|
B|---------------------------------------------------------------------------|
G|---------------------------------------------------------------------------|
D|-1-1-1-1-1-1-1-1-1-1-1-1---1--1----1-1-1-1-1-1-1-1-1-1-1-1-1-1-1-----------|
A|-1-1-1-1-1-1-1-1-1-1-1-1---1--1----1-1-1-1-1-1-1-1-1-1-1-1-1-1-1-----------|
D|-1-1-1-1-1-1-1-1-1-1-1-1---1--1----1-1-1-1-1-1-1-1-1-1-1-1-1-1-1-----------|
   . . . . . . . . . . . .           . . . . . . . . . . . . . . .

(And I'm holding...her)
e|---------------------------------------------------------------------------|
B|---------------------------------------------------------------------------|
G|---------------------------------------------------------------------------|
D|-------8-8-8-8-8-8-8-8-8-8-8-8---10-10-10-10-------------------------------|
A|-------x-x-x-x-x-x-x-x-x-x-x-x---xx-xx-xx-xx-------------------------------|
E|-12\---8-8-8-8-8-8-8-8-8-8-8-8---10-10-10-10-------------------------------|

(Responsible...become)
e|---------------------------------------------------------------------------|
B|---------------------------------------------------------------------------|
G|---------------------------------------------------------------------------|
D|-1-1-1-1-1-1-1-1-1-1-1-1---1--1----1-1-1-1-1-1-1-1-1-1-1-1-1-1-1-----------|
A|-1-1-1-1-1-1-1-1-1-1-1-1---1--1----1-1-1-1-1-1-1-1-1-1-1-1-1-1-1-----------|
D|-1-1-1-1-1-1-1-1-1-1-1-1---1--1----1-1-1-1-1-1-1-1-1-1-1-1-1-1-1-----------|
   . . . . . . . . . . . .           . . . . . . . . . . . . . . .

Breakdown:

(Let's effin' do this)
e|--------------------------|
B|--------------------------|
G|--------------------------|
D|---1-1-1--1-1-1-1-1-1-----|
A|---1-1-1--1-1-1-1-1-1-----|
D|---1-1-1--1-1-1-1-1-1-----|
     . . .  . . . . . .

e|------------------------------------------|
B|------------------------------------------|
G|------------------------------------------|
D|-3-3-3--3-3-3--3-3-3---5-5-5--5-5-5-5-5-5-|
A|-3-3-3--3-3-3--3-3-3---5-5-5--5-5-5-5-5-5-|
D|-3-3-3--3-3-3--3-3-3---5-5-5--5-5-5-5-5-5-|
   . .(.) . .(.) . .(.)  . .(.) . . . . . .

e|----------------------------------------|  Do the first bar once then repeat
B|----------------------------------------|  the second and third one 4 times.
G|----------------------------------------|  on the 3rd and last time let the
D|---1-1-1--1-1-1--1-1-1--1-1-1-1-1-1-----|  last note of each set of notes
A|---1-1-1--1-1-1--1-1-1--1-1-1-1-1-1-----|  ring as seen by (.)
D|---1-1-1--1-1-1--1-1-1--1-1-1-1-1-1-----|
     . .(.) . .(.) . .(.) . . . . .(.)

Post Breakdown:

(Everything means...to me)
e|---------------------------------------------------------------------------|
B|---------------------------------------------------------------------------|
G|-3-3-----------------------------------------------------------------------|
D|-3-3--1~-------3-3--5~------12-12--8~--------------------------------------|
A|-1-1--1~-------3-3--5~------12-12--8~--------------------------------------|
D|------1~-------3-3--5~------12-12--8~--------------------------------------|


e|-----------------------------------------------------------------------------|
B|-----------------------------------------------------------------------------|
G|-----------------------------------------------------------------------------|
D|-3--3-3-3-3-3-3--5--5-5-5-5-/-9--9-9-9-/-10--10-10-10------------------------|
A|-3--3-3-3-3-3-3--5--5-5-5-5-/-9--9-9-9-/-10--10-10-10------------------------|
E|-3--3-3-3-3-3-3--5--5-5-5-5-/-9--9-9-9-/-10--10-10-10------------------------|

Verse:

(You've got...)                   (You just kill me...)
e|---------------------------------------------------------------------------|
B|---------------------------------------------------------------------------|
G|---------------------------------------------------------------------------|
D|-8-8--8-8--8-----------1-1-1-----1-1---------------------------------------|
A|-x-x--x-x--x--(x4)-----1-1-1-----1-1-(x16)---------------------------------|
D|-8-8--8-8--8-----------1-1-1-----1-1---------------------------------------|           
            . . .


(I'm not getting any closer...)                     (To you again...before)
e|---------------------------------------------------------------------------|
B|---------------------------------------------------------------------------|
G|---------------------------------------------------------------------------|
D|-8-8--8-8--12--10-10--12-12-/-13-\-12-\-10---------1-1---------------------|
A|-x-x--x-x--xx--xx-xx--xx-xx-/-xx-\-xx-\-xx--(x2)---1-1--(x16)--------------|
D|-8-8--8-8--12--10-10--12-12-/-13-\-12-\-10---------1-1---------------------|

(You're the one...)
e|---------------------------------------------------------------------------|
B|---------------------------------------------------------------------------|
G|---------------------------------------------------------------------------|
D|-1-1-1-1-1-1-1-1--3-3-3-3-3-3-3-3---3-/-5-5--3----3-/-5-5--3---------------|
A|-1-1-1-1-1-1-1-1--3-3-3-3-3-3-3-3---3-/-5-5--3----3-/-5-5--3-(x3)----------|
D|-1-1-1-1-1-1-1-1--3-3-3-3-3-3-3-3---3-/-5-5--3----3-/-5-5--3---------------|
 [Slide to the first set of 5's and then strum them]

(Blame for!)
e|---------------------------------------------------------------------------|
B|---------------------------------------------------------------------------|
G|--------------------------------------------------------3------------------|
D|-1-1-1-1-1-1-1-1--3-3-3-3-3-3-3-3---1--1-1---1--1-1-1---3------------------|
A|-1-1-1-1-1-1-1-1--3-3-3-3-3-3-3-3---1--1-1---1--1-1-1---1------------------|
D|-1-1-1-1-1-1-1-1--3-3-3-3-3-3-3-3---1--1-1---1--1-1-1----------------------|           
                            . .      . . .


e|----X--X--X--X----|
B|----X--X--X--X----|
G|----X--X--X--X----|
D|----X--X--X--X----|
A|----X--X--X--X----|
D|----X--X--X--X----|

Chorus:

(When you know...yourself)
e|---------------------------------------------------------------------------|
B|---------------------------------------------------------------------------|
G|-3-3-3-3-3-3-3-3---5-5-5-5-5-5-5-5-----------------------------------------|
D|-3-3-3-3-3-3-3-3---5-5-5-5-5-5-5-5---1-1--1---1-1--1----3-3-3--------------|
A|-1-1-1-1-1-1-1-1---3-3-3-3-3-3-3-3---1-1--1---1-1--1----3-3-3--------------|
E|-------------------------------------1-1--1---1-1--1----3-3-3--------------|

(I have nothing...you're okay)
e|---------------------------------------------------------------------------|
B|---------------------------------------------------------------------------|
G|---------------------------------------------------------------------------|
D|-5-5-5--1-1-1--3-3-3--5-5-5--3-3-3-1--1-1--1---1-1--1----------------------|
A|-5-5-5--1-1-1--3-3-3--5-5-5--3-3-3-1--1-1--1---1-1--1--(x2)----------------|
E|-5-5-5--1-1-1--3-3-3--5-5-5--3-3-3-1--1-1--1---1-1--1----------------------|

(...Okay)
e|-------------------------|
B|-------------------------|
G|-3-3--3----------3-3-3-3-|
D|-1-1--1--(x2)----1-1-1-1-|
A|-1-1--1----------1-1-1-1-|
E|-------------------------|
                   . . . .
Добавлено: 21.05.2012
Другие материалы по этой песне:

Страница создана 05.05.2012
http://primanota.ru/four-year-strong/your-song-chords.htm
Привет, Гость.
Предлагаем пройти революционный курс по гитаре.
Подарок от PrimaNota.Ru, забирай!