PrimaNota.ru - самый крупный в мире бесплатный архив песенных текстов, аккордов, табулатур и нот


Four Year Strong - Go Long Dad - текст песни, таба, видео

Регистрация Запомнить меня
Войти через:  Facebook Google Twitter Vk Yandex Mail.ru

Four Year Strong - Go Long Dad - текст песни, таба, видео

Печатать
Просмотров: 193
Уроки эстрадного вокала в Санкт-Петербурге
So after popular demand on our cover of Go Long Dad - Four Year Strong, I've finally put 
up what the boy in the video is playing. Apologise about the wait and the lack of 
rhythm specified aha.

e|-------0-2---3-2-0h2-0---------0h2-------0-5h3h2--|
B|---3-3-----3-----------3-----3-----3---3----------|
G|---------------------------4---------2------------|
D|--------------------------------------------------|
A|--------------------------------------------------|
D|--------------------------------------------------|  x4

e|------0h2---------0h2---3-2-0------0h2-----5-3-2----|
B|--3-3-----3---3-3-----3--------3-3-----3------------|
G|----------------------------------------------------|
D|----------------------------------------------------|
A|----------------------------------------------------|
D|----------------------------------------------------|

e|-3-2-0h2------------------------------------------|
B|---------3----------------------------------------|
G|--------------------------------------------------|
D|--------------------------------------------------|
A|--------------------------------------------------|
D|--------------------------------------------------|

This is the cover: http://www.youtube.com/watch?v=kIR6EPaK2_4&lc

Thanks Rosebud
Добавлено: 21.09.2013
Другие материалы по этой песне:
  • Аккорды и текст

Страница создана 03.05.2012
http://primanota.ru/four-year-strong/go-long-dad-chords.htm
Привет, Гость.
Предлагаем пройти революционный курс по гитаре.
Подарок от PrimaNota.Ru, забирай!