PrimaNota.ru - самый крупный в мире бесплатный архив песенных текстов, аккордов, табулатур и нот


Four Year Strong - Stuck In The Middle - таба, видео

Регистрация Запомнить меня
Войти через:  Facebook Google Twitter Vk Yandex Mail.ru

Four Year Strong - Stuck In The Middle - таба, видео

Печатать
Просмотров: 177
Уроки эстрадного вокала в Санкт-Петербурге
Hi There!

This is the full tab for Four Year Strong's new single Stuck In The Middle Played in D 
Standard. ENJOY!

Jamm


INTRO:

D--------------------------------------------------------------|
A--------9--------------9--------------9--------------9--------|
F----9-----9---9----9-----9---9----9-----9---9----9-----9---9--|
C--9---9-----9----8---8-----8----7---7-----7-------------------|
G-----------------------------------------------7---7-----7----|
D--------------------------------------------------------------|

D--------------------------------------------------------------|
A--------9--------------9--------------9-----------------------|
F----9-----9---9----9-----9---9----9-----9---9-----------------|
C--9---9-----9----8---8-----8----7---7-----7-------------------|
G---------------------------------------------------7-5--------|
D-----------------------------------------------0--0-0-3-4-----|

D--------------------------------------------------------------|
A--------9--------------9--------------9--------------9--------|
F----9-----9---9----9-----9---9----9-----9---9----9-----9---9--|
C--9---9-----9----8---8-----8----7---7-----7-------------------|
G-----------------------------------------------7---7-----7----|
D--------------------------------------------------------------|

D----------------------------------------------------------------------|
A--------9--------------9--------------9-------------------------------|
F----9-----9---9----9-----9---9----9-----9---9-------------------------|
C--9---9-----9----8---8-----8----7---7-----7---------------------------|
G---------------------------------------------------7-5---------7-5----|
D-----------------------------------------------0--0-0-3-4--0--0-0-3-4-|

VERSE:

D----------------------------------------------------------------------|
A----------------------------------------------------------------------|
F--5--5-5-5-5-5-5---2--2-2-2-2-2-2-------------------------------------|
C--5--5-5-5-5-5-5---2--2-2-2-2-2-2------5p0---7p0-----4---4-2-4-5------|
G--3--3-3-3-3-3-3---0--0-0-0-0-0-0-------------------------------------|
D-----------------------------------0-0-----0-----0-0---0--------------|

D----------------------------------------|
A----------------------------------------|
F--5--5-5-5-5-5-5---2--2-2-2-2-2-2-2-2---|
C--5--5-5-5-5-5-5---2--2-2-2-2-2-2-2-2---|
G--3--3-3-3-3-3-3---0--0-0-0-0-0-0-0-0---|
D----------------------------------------|

CHORUS:

D----------------------------------------------------------------------|
A----------------------------------------------------------------------|
F-------------------7--7-7-7-7-7-7-------------------------------------|
C--2--2-2-2-2-2-2---7--7-7-7-7-7-7---7--7-7-7-7-7-7--------------------|
G--2--2-2-2-2-2-2---5--5-5-5-5-5-5---7--7-7-7-7-7-7--------------------|
D--0--0-0-0-0-0-0--------------------5--5-5-5-5-5-5--3--5-5--3--5-5----|

D----------------------------------------------------------------------|
A----------------------------------------------------------------------|
F-------------------7--7-7-7-7-7-7---------------------5--5--5-4-------|
C--2--2-2-2-2-2-2---7--7-7-7-7-7-7---7--7-7-7-7-7-7-7--5--5--5-4-------|
G--2--2-2-2-2-2-2---5--5-5-5-5-5-5---7--7-7-7-7-7-7-7--3--3--3-2-------|
D--0--0-0-0-0-0-0--------------------5--5-5-5-5-5-5-5------------------|

D----------------------------------------------------------------------|
A----------------------------------------------------------------------|
F-------------------7--7-7-7-7-7-7-------------------------------------|
C--2--2-2-2-2-2-2---7--7-7-7-7-7-7---7--7-7-7-7-7-7--------------------|
G--2--2-2-2-2-2-2---5--5-5-5-5-5-5---7--7-7-7-7-7-7--------------------|
D--0--0-0-0-0-0-0--------------------5--5-5-5-5-5-5--3--5-5--3--5-5----|

D----------------------------------------------------------------------|
A----------------------------------------------------------------------|
F--5--5-5-5-5-5-5-5-5-5-5-5-5-5-5---2--2-2-2-2-2-2-2-2-----------------|
C--5--5-5-5-5-5-5-5-5-5-5-5-5-5-5---2--2-2-2-2-2-2-2-2--GUITAR-SLIDE---|
G--3--3-3-3-3-3-3-3-3-3-3-3-3-3-3---0--0-0-0-0-0-0-0-0-----------------|
D----------------------------------------------------------------------|

BRIDGE:

D----------------------------------------------------------------------|
A----------------------------------------------------------------------|
F------------------------------------------------------------6---------|
C------------------------------------------------------5--6--6---------|
G-------7-------7-------7-------7------7-------7-------5--6--4---------|
D--0--0---0-0-0---0-0-0---0-0-0---0--0---0-0-0---0--0--3--4------------|

D--------------------------------------------------------------------------|
A--------------------------------------------------------------------------|
F------------------------------------------------------------6--7--------8-|
C------------------------------------------------------5--6--6--7--7--8--8-|
G-------7-------7-------7-------7------7-------7-------5--6--4--5--7--8--6-|
D--0--0---0-0-0---0-0-0---0-0-0---0--0---0-0-0---0--0--3--4--------5--6----|

VERSE:

D--------------------------------------------------------------------------|
A--------------------------------------------------------------------------|
F--------------------------------------------------------------------------|
C--2--2-2-2-2-2-2--4-4-4-4-4-4-4--7-7-7-7-7-7-7--2-2-2-2-2-2-2-------------|
G--2--2-2-2-2-2-2--4-4-4-4-4-4-4--7-7-7-7-7-7-7--2-2-2-2-2-2-2-------------|
D--0--0-0-0-0-0-0--2-2-2-2-2-2-2--5-5-5-5-5-5-5--0-0-0-0-0-0-0-------------|
        PM              PM             PM             PM

D--------------------------------------------------------------------------|
A--------------------------------------------------------------------------|
F--------------------------------------------------------------------------|
C--2--2-2-2-2-2-2--4-4-4-4-4-4-4--7-7-7-7-7-7-7----------------------------|
G--2--2-2-2-2-2-2--4-4-4-4-4-4-4--7-7-7-7-7-7-7------7-5-------------------|
D--0--0-0-0-0-0-0--2-2-2-2-2-2-2--5-5-5-5-5-5-5--0--0-0-3-4----------------|
          PM            PM             PM

D--------------------------------------------------------------------------|
A--------------------------------------------------------------------------|
F--------------------------------------------------------------------------|
C--2--2-2-2-2-2-2--4-4-4-4-4-4-4--7-7-7-7-7-7-7--2-2-2-2-2-2-2-------------|
G--2--2-2-2-2-2-2--4-4-4-4-4-4-4--7-7-7-7-7-7-7--2-2-2-2-2-2-2-------------|
D--0--0-0-0-0-0-0--2-2-2-2-2-2-2--5-5-5-5-5-5-5--0-0-0-0-0-0-0-------------|

D--------------------------------------------------------------------------|
A--------------------------------------------------------------------------|
F--------------------------------------------------------------------------|
C--2--2-2-2-2-2-2--4-4-4-4-4-4-4--7-7-7-7-7-7-7----------------------------|
G--2--2-2-2-2-2-2--4-4-4-4-4-4-4--7-7-7-7-7-7-7------7-5-------------------|
D--0--0-0-0-0-0-0--2-2-2-2-2-2-2--5-5-5-5-5-5-5--0--0-0-3-4-0--------------|
                                                   Riff x 4

D----------------------------------------------------------------------|
A----------------------------------------------------------------------|
F--5--5-5-5-5-5-5---2--2-2-2-2-2-2-------------------------------------|
C--5--5-5-5-5-5-5---2--2-2-2-2-2-2------5p0---7p0-----4---4-2-4-5------|
G--3--3-3-3-3-3-3---0--0-0-0-0-0-0-------------------------------------|
D-----------------------------------0-0-----0-----0-0---0--------------|

D---------------------------------------------------|
A---------------------------------------------------|
F--5--5-5-5-5-5-5---2--2-2-2-2-2-2-2-2-2-2-2-x-x-x--|
C--5--5-5-5-5-5-5---2--2-2-2-2-2-2-2-2-2-2-2-x-x-x--|
G--3--3-3-3-3-3-3---0--0-0-0-0-0-0-0-0-0-0-0-x-x-x--|
D---------------------------------------------------|

CHORUS:

D----------------------------------------------------------------------|
A----------------------------------------------------------------------|
F-------------------7--7-7-7-7-7-7-------------------------------------|
C--2--2-2-2-2-2-2---7--7-7-7-7-7-7---7--7-7-7-7-7-7--------------------|
G--2--2-2-2-2-2-2---5--5-5-5-5-5-5---7--7-7-7-7-7-7--------------------|
D--0--0-0-0-0-0-0--------------------5--5-5-5-5-5-5--3--5-5--3--5-5----|

D----------------------------------------------------------------------|
A----------------------------------------------------------------------|
F-------------------7--7-7-7-7-7-7---------------------5--5--5-4-------|
C--2--2-2-2-2-2-2---7--7-7-7-7-7-7---7--7-7-7-7-7-7-7--5--5--5-4-------|
G--2--2-2-2-2-2-2---5--5-5-5-5-5-5---7--7-7-7-7-7-7-7--3--3--3-2-------|
D--0--0-0-0-0-0-0--------------------5--5-5-5-5-5-5-5------------------|

D----------------------------------------------------------------------|
A----------------------------------------------------------------------|
F-------------------7--7-7-7-7-7-7-------------------------------------|
C--2--2-2-2-2-2-2---7--7-7-7-7-7-7---7--7-7-7-7-7-7--------------------|
G--2--2-2-2-2-2-2---5--5-5-5-5-5-5---7--7-7-7-7-7-7--------------------|
D--0--0-0-0-0-0-0--------------------5--5-5-5-5-5-5--3--5-5--3--5-5----|

D----------------------------------------------------------|
A----------------------------------------------------------|
F--5--5-5-5-5-5-5-5-5-5-5-5-5-5-5---2--2-2-2-2-2-2-2-2-----|
C--5--5-5-5-5-5-5-5-5-5-5-5-5-5-5---2--2-2-2-2-2-2-2-2-----|
G--3--3-3-3-3-3-3-3-3-3-3-3-3-3-3---0--0-0-0-0-0-0-0-0-----|
D----------------------------------------------------------|

INTERLUDE:

D-----------------------------------|
A-----------------------------------|
F-----------------------------------|
C-----------------------------------|  PLAY 8 TIMES
G-------7-------7-------7-------7---|   PALM MUTED
D--0--0---0-0-0---0-0-0---0-0-0-----|

D-----------------------------------------------------------------------|
A-----------------------------------------------------------------------|
F--9--9-9-9-9-9-9-9--7-7-7-7-7-7-7--6-6-6-6-6-6-6--5-5-5-5-5-5-5--------|
C--9--9-9-9-9-9-9-9--7-7-7-7-7-7-7--6-6-6-6-6-6-6--5-5-5-5-5-5-5--------|
G--7--7-7-7-7-7-7-7--5-5-5-5-5-5-5--4-4-4-4-4-4-4--3-3-3-3-3-3-3--------|
D-----------------------------------------------------------------------|
                       PLAY 3 TIMES PALM MUTED

D-----------------------------------------------------------------------|
A-----------------------------------------------------------------------|
F--9-9-9-9-9-9-9-9-7-7-7-7-7-7-7-7-6-6-6-6-6-6-6-6-5--------------------|
C--9-9-9-9-9-9-9-9-7-7-7-7-7-7-7-7-6-6-6-6-6-6-6-6-5--------------------|
G--7-7-7-7-7-7-7-7-5-5-5-5-5-5-5-5-4-4-4-4-4-4-4-4-3--------------------|
D-----------------------------------------------------------------------|

BREAKDOWN:

D-----------------------------------------------------------------------|
A-----------------------------------------------------------------------|
F--9--9------------------------9--9-------------------------------------|
C--9--9------------------------9--9-------------------------------------|
G--7--7---------5---------5----7--7---------5---------5-----------------|
D--------3-4-5-0-0-3-4-5-0-0---------3-4-5-0-0-3-4-5-0------------------|

                            PLAY TWICE

D-----------------------------------------------------------------------|
A-----------------------------------------------------------------------|
F--9--9-----------------------------------------------------------------|
C--9--9--------------------------4-5---5-6---6-7---7-8---8-9-2----------|
G--7--7---------5---------5------4-5---5-6---6-7---7-8---8-9-2----------|
D--------3-4-5-0-0-3-4-5-0-0---0-2-3-0-3-4-0-4-5-0-5-6-0-6-7-0----------|

INTRO PLYED IN CHORUS:

D--------------------------------------------------------------|
A--------9--------------9--------------9--------------9--------|
F----9-----9---9----9-----9---9----9-----9---9----9-----9---9--|
C--9---9-----9----8---8-----8----7---7-----7-------------------|
G-----------------------------------------------7---7-----7----|
D--------------------------------------------------------------|

D--------------------------------------------------------------|
A--------9--------------9--------------9-----------------------|
F----9-----9---9----9-----9---9----9-----9---9--5--5--5-4------|
C--9---9-----9----8---8-----8----7---7-----7----5--5--5-4------|
G-----------------------------------------------3--3--3-2------|
D--------------------------------------------------------------|

D----------------------------------------------------------------------|
A----------------------------------------------------------------------|
F-------------------7--7-7-7-7-7-7-------------------------------------|
C--2--2-2-2-2-2-2---7--7-7-7-7-7-7---7--7-7-7-7-7-7--------------------|
G--2--2-2-2-2-2-2---5--5-5-5-5-5-5---7--7-7-7-7-7-7--------------------|
D--0--0-0-0-0-0-0--------------------5--5-5-5-5-5-5--3--5-5--3--5-5----|

D----------------------------------------------------------------------|
A----------------------------------------------------------------------|
F--5--5-5-5-5-5-5-5-5-5-5-5-5-5-5---2-2-2-2-2-2-2-2-2-2-2-2-2-2--------|
C--5--5-5-5-5-5-5-5-5-5-5-5-5-5-5---2-2-2-2-2-2-2-2-2-2-2-2-2-2--------|
G--3--3-3-3-3-3-3-3-3-3-3-3-3-3-3---0-0-0-0-0-0-0-0-0-0-0-0-0-0--------|
D----------------------------------------------------------------------|

SOLO:

D----------------------------------------------------|
A---9-9-9-7-7-7-10-10-10-9-9-9--5-5--5-5--5-5--5-5---|
F----------------------------------------------------|
C----------------------------------------------------|
G----------------------------------------------------|
D----------------------------------------------------|

D----------------------------------------------------|
A---9-9-9-7-7-7-10-10-10-9-9-9--5-5--5-5--8--8--8-8--|
F----------------------------------------------------|
C----------------------------------------------------|
G----------------------------------------------------|
D----------------------------------------------------|

D----------------------------------------------------|
A---9-9-9-7-7-7-10-10-10-9-9-9--5-5--5-5--5-5--5-5---|
F----------------------------------------------------|
C----------------------------------------------------|
G----------------------------------------------------|
D----------------------------------------------------|

OUTRO:

D----------------------------------------------------------|
A----------------------------------------------------------|
F--5--5-5-5-5-5-5-5-5-5-5-5-5-5-5---2--2-2-2-2-2-2-2-2-----|
C--5--5-5-5-5-5-5-5-5-5-5-5-5-5-5---2--2-2-2-2-2-2-2-2-----|
G--3--3-3-3-3-3-3-3-3-3-3-3-3-3-3---0--0-0-0-0-0-0-0-0-----|
D----------------------------------------------------------|


D-----------------------------------------|
A-----------------------------------------|
F--9--9-----------------------------------|
C--9--9------------------------2----------|
G--7--7---------5---------5----2----------|
D--------3-4-5-0-0-3-4-5-0-0---0----------|


                               FINSIH!
Добавлено: 30.03.2012
Другие материалы по этой песне:

Страница создана 30.03.2012
http://primanota.ru/four-year-strong/stuck-in-the-middle-chords.htm
Привет, Гость.
Предлагаем пройти революционный курс по гитаре.
Подарок от PrimaNota.Ru, забирай!