PrimaNota.ru - самый крупный в мире бесплатный архив песенных текстов, аккордов, табулатур и нот


Four Year Strong - Heroes Get Remembered Legends Never Die - таба, бас-таба, видео

Регистрация Запомнить меня
Войти через:  Facebook Google Twitter Vk Yandex Mail.ru

Four Year Strong - Heroes Get Remembered Legends Never Die - таба, бас-таба, видео

Печатать
Просмотров: 297
intro

~=vibrato
h=hammer on
s=slide
pm=palm mute
*=pinch harmonic
intro/chorus
e ----------------------------|---------------------------------|
b ----------------------------|---------------------------------|
g ----------------------------|---------------------------------| \
d ----------------------------|---------------------------------|  4 times
a -------------9-7-----9h10-9-|--------------7-5---5--7h5-------| /
d 00--0-00--0------00---------|-00--0-00--0------0--------5-----|
  
*2/4 use full bar chords.

first guitar
e ----------------------------------------------------|\
b ----------------------------------------------------| \
g ----------------------------------------------------|  \ 
d 000--0---0-0-0-----000--0---0-0-0-------------------|   \  
a 000--0---0-0-0-----000--0---0-0-0-------------------|    \
d 000--0---0-0-0-----000--0---0-0-0---4h5-7-5-44-5----|     \
                                                             2 times
e ----------------------------|-----------------------|     /
b ----------------------------|-----------------------|    /
g ----------------------------|-----------------------|   /
d 000-------00---12*-00--0000-|-000--0----------------|  /  
a 000---9*--00-------00--0000-|-000--0----------------| /
d 000-------00-------00--0000-|-000--0---4h5-7-5-4-00-|/

second guitar(after the first guitar plays 1/2)
e ----------------------------------------------------|
b ----------------------------------------------------|
g -777777777777-6666-4444444444444444-----------------|  
d -xxxxxxxxxxxx-xxxx-xxxxxxxxxxxxxxxx-----------------| 2 times   
a -555555555555-4444-2222222222222222-----------------|    
d ----------------------------------------------------|     
                                                         
pre-chorus   
e --------------------------------------------------------------|
b --------------------------------------------------------------|
g --------------------------------------------------------------| 
d 555555555555-777-99-99-999-7-5555555555555555-2222-2333h5555--|
a 555555555555-777-99-99-999-7-5555555555555555-2222-2333h5555--|
d 555555555555-777-99-99-999-7-5555555555555555-2222-2333h5555--|

Then the Chorus. then over again and if your not completely retarded you know
what to do for the build up for the breakdown. Then the breakdown below.
BREAKDOWN
e ---------|
b ---------| im doing the hole rythm its really easy. just remember pinches* 
g ---------------14*--16*|
d -0-------|
a -0-------|
d -0-------|
then the chorus again=]  

the end. by JOO!!

add me if you want
yummy_soup@hotmail.com
or
myspace me
http://profile.myspace.com/index.cfm?fuseaction=user.viewprofile&friendid=149993651

=]
Добавлено: 20.05.2012
Другие материалы по этой песне:

Страница создана 05.03.2012
http://primanota.ru/four-year-strong/heroes-get-remembered-legends-never-die-chords.htm
Привет, Гость.
Предлагаем пройти революционный курс по гитаре.
Подарок от PrimaNota.Ru, забирай!