PrimaNota.ru - самый крупный в мире бесплатный архив песенных текстов, аккордов, табулатур и нот


Four Year Strong - Prepare To Be Digitally Manipulated - текст песни, таба, бас-таба, видео

Регистрация Запомнить меня
Войти через:  Facebook Google Twitter Vk Yandex Mail.ru

Four Year Strong - Prepare To Be Digitally Manipulated - текст песни, таба, бас-таба, видео

Печатать
Просмотров: 155
----------------------------------------------------------------------------
Prepare To be Digitally Manipulated - Four Year Strong
---------------------------------------------------------------------------
Tabbed by:haydenm
Email:hayden.merrick@hotmail.com

Tuning:Drop D

INTRO
e|------------------------------------------------|
B|------------------------------------------------|
G|------------------------------------------------|
D|-5-6-7-0---4+-0---2-4-2-9---7-5-----------------|
A|-3-4-5-0-7----0-5-2-4-2-9-0-7-5-4-4-5-4-0-------|
D|-------0-5----0---2-4-2-9-0-7-5-4-4-5-4-0-------|

VERSE 1- 'LADIES AND GENTLEMAN OPEN UP YOUR EYES AND EARS...'
e|------------------------------------------------------|
B|------------------------------------------------------|
G|------------------------------------------------------|
D|--X5-X5-X5-X5-X5-X5-5-6-7-X5-X5-X5-X5-X5-X5-5-6-7-----|
A|--X5-X5-X5-X5-X5-X5-3-4-5-X5-X5-X5-X5-X5-X5-3-4-5-----|
D|--X5-X5-X5-X5-X5-X5-------X5-X5-X5-X5-X5-X5-----------|

e|---------------------------------------------------------|
B|---------------------------------------------------------|
G|---------------------------------------5-5-5-5-----------|
D|--000000000000000000000-5-6-7-2-2-2-2--5-5-5-5--5-6-7----|
A|--000000000000000000000-3-4-5-2-2-2-2--3-3-3-3--3-4-5----|
D|--000000000000000000000-------2-2-2-2--------------------|

CHORUS 'I BREATHE REVENGE TONIGHT IT NEVER TASTED SO SWEET'
e|---------------------------------------------------------------------|
B|---------------------------------------------------------------------|
G|---7-----------------7------------------7----------------------------|
D|-0-7-----4+----7-9-0-7----2+----2-4-2-0-7----4+----2-2-2-4-5-5-6-7---|
A|-0-5-0-0---0-0-7-9-0-5-0-0--0-0-2-4-2-0-5-0-0--7-9-2-2-2-4-5-3-4-5---|
D|-0---0-0---0-0-7-9-0---0-0--0-0-2-4-2-0---0-0--7-9-2-2-2-4-5---------|

MAIN RIFF AGAIN
VERSE 2

BREAKDOWN
e|---------------------------------------------------------------|
B|---------------------------------------------------------------|
G|---------------------------------------------------------------|
D|--------------------------------4----------------------------4-|
A|------4-5----4-5----4-5---4-5--7-----4-5---4-5---4-5---4-5--7--|
D|--0-0-----0-0----0-0---0-0--------0-0---0-0---0-0---0-0----7---|

e|-------------------------------------------------------------------------|
B|-------------------------------------------------------------------------|
G|-2-2-2-x-2-2-2-----------------------------------------------------------|
D|-0-0-0-x-0-0-0----0----4+----0--------------4+--x0000000-----------------|
A|-0-0-0-x-0-0-0--------------------0-------------x0000000-2-4-5-9---------|
D|-0-0-0-x-0-0-0-2-4--4-5---5-7--7-9--10-11-12----x0000000-2-4-5-9-10-11-12|

e|----------------------------------------------------------------------|
B|--------------------------------------------------------------------- |
G|----------------------------------------------------------------------|
D|-0000000000----------4+-00000----0------------------------------------|
A|-0000000000-2-0-4-0-5---00000----------0------------------------------|
D|-0000000000-------------00000-2-4--4-5---5-7-0-9-10-11-12-------------|

Chorus again
outro riff = same as intro

************************************

| /   slide up
| \   slide down
| h   hammer-on
| p   pull-off
| ~   vibrato
| +   harmonic
| x   Mute note
| b   Bend
| pb  Pre-bend
| br  Bend release
| pbr Pre-bend release
| brb Bend release bend

************************************
Добавлено: 21.06.2013
Другие материалы по этой песне:
  • Аккорды и текст

Страница создана 05.04.2012
http://primanota.ru/four-year-strong/prepare-to-be-digitally-manipulated-chords.htm
Привет, Гость.
Предлагаем пройти революционный курс по гитаре.
Подарок от PrimaNota.Ru, забирай!