PrimaNota.ru - самый крупный в мире бесплатный архив песенных текстов, аккордов, табулатур и нот


Four Year Strong - So Hot And You Sweat On It - текст песни, таба, видео

Регистрация Запомнить меня
Войти через:  Facebook Google Twitter Vk Yandex Mail.ru

Four Year Strong - So Hot And You Sweat On It - текст песни, таба, видео

Печатать
Просмотров: 144
Into Part 1
E|----------------------------------|
B|----------------------------------|
G|--\\---------\\-------------------|
D|--\\pickslide\\----\\---------\\--|
A|--\\---------\\----\\pickslide\\--|
D|-------------------\\---------\\--|


Intro part 2 (play twice)
E|------------------------------------------------------|
B|------------------------------------------------------|
G|--7--7-7-7--------------------------------------------|
D|--7--7-7-7-5------5------5--2--2-2-2-5------5------5--|
A|--5--5-5-5-5------5------5--2--2-2-2-5------5------5--|
D|-----------5--5-5-5--5-5-5--2--2-2-2-5--5-5-5--5-5-5--|
             PM|---|  |---|               |---| |---|
Pre-verse
E|--------------|
B|--------------|
G|--7-------7\--|
D|--7-------7\--|
A|--5-5-5-5-5\--|
D|--------------|
   PM|-----|

Verse            Play (x4)|------------------------------------------------|
E|-------------------------------------------------------------------------|
B|-------------------------------------------------------------------------|
G|-------------------------------------------12-12-------------------------|
D|----12-12-12-12-12-12-12-12-12-14-14-12-12-------12-12-14-14-12-12-------|
A|-------------------------------------------------------------------14-14-|
D|-------------------------------------------------------------------------|
  PM |--slowly-release---| |-----------------------------------------------|

Pre-Chorus
E|-----------------|
B|-----------------|
G|--7---7-7--------|
D|--7---7-7-5--5-5-|
A|--5---5-5-5--5-5-|
D|----------5--5-5-|

Chorus (play twice)
E|----------------------------------------------|
B|----------------------------------------------|
G|--7--7-7-7------------------------------------|
D|--7--7-7-7-5--5-5-5-5-5-2--2-2-2-5--5-5-5-5-5-|
A|--5--5-5-5-5--5-5-5-5-5-2--2-2-2-5--5-5-5-5-5-|
D|-----------5--5-5-5-5-5-2--2-2-2-5--5-5-5-5-5-|

Repeat Intro Part 2 or play the chorus again which ever sounds better to you

Repeat Pre-verse

Repeat Verse

Repeat pre-Chorus

Repeat Chorus (play four times instead of two this time)

Breakdown type thing(play four times)
E|---------------------------------------------------|
B|---------------------------------------------------|
G|---------------------------------------------------|
D|--0-0-5-4h5-0-5-4h5p4-0h2-0-0-7-7h9-0-7-4h5h4-0h2--|
A|---------------------------------------------------|
D|---------------------------------------------------|
 PM|---|                    |--|

(play four times)
E|------------------------------------------------------------------|
B|------------------------------------------------------------------|
G|------------------------------------------------------------------|
D|--0-0---0-0----00000-------------0-0--0-0-----000000--------------|
A|------------------------------------------------------------------|
D|------------------------------------------------------------------|
 PM|----------------------------------------------------------------|

(not entirely sure about this part)
(play four times)
E|---------------------------------------|
B|---------------------------------------|
G|--7/--11-11-11-11-11--6/--7-7-7-7-7-7--|
D|---------------------------------------|
A|--5/--9--9--9--9--9---4/--5-5-5-5-5-5--|
D|---------------------------------------|

(play twice)
E|-----------------------------|
B|-----------------------------|
G|--7/--11--------6/--7--------|
D|-----------------------------|
A|--5/--9--00000--4/--5--00000-|
D|-----------------------------|
  PN       |----|        |---|
Acoustic part
E|-------------------------|
B|-------------------------|
G|-------------------------|
D|--12----12\---2-2--5-5---|
A|--12----12\---2-2--5-5---|
D|--12----12\---2-2--5-5---|

Then play the chorus four times and your done
Добавлено: 25.06.2012
Другие материалы по этой песне:

Страница создана 24.06.2012
http://primanota.ru/four-year-strong/so-hot-and-you-sweat-on-it-chords.htm
Привет, Гость.
Предлагаем пройти революционный курс по гитаре.
Подарок от PrimaNota.Ru, забирай!