PrimaNota.ru - самый крупный в мире бесплатный архив песенных текстов, аккордов, табулатур и нот


Four Year Strong - Dumpweed - таба, видео

Регистрация Запомнить меня
Войти через:  Facebook Google Twitter Vk Yandex Mail.ru

Four Year Strong - Dumpweed - таба, видео

Печатать
Просмотров: 139
Авторы: Travis Barker, Tom DeLonge, Mark Hoppus

Artist: Four Year Strong
Song: Dumpweed (Blink 182 cover)
Album: Demo

Tabbed by: Reece Westerman

NOTE: Hope this helps! I haven't tabbed the picking parts but i'm pretty sure its just 
notes towards the guitar head from the Blink 182 original. Have Fun!

Tuning: Drop D
[ D A D G B E ]


Synth Intro

Intro:
Guitar comes in at 0.10
e|-----------------------------------------------------------------|
B|-----------------------------------------------------------------|
G|-----------------------------------------------------------------|
D|--0------0------5------5-----------------------------------------|
A|--0------0------5------5-----------------------------------------|
D|--0------0------5------5-----------------------------------------|

e|----------------------------------------[--------------|
B|----------------------------------------[--------------|
G|-------------------------2--------------[--------------| X2
D|--0-------5-------0------2-(x8)---------[---0----------|
A|--0-(x8)--5-(x8)--0-(x8)-0--------------[---0----------|
D|--0-------5-------0---------------------[---0----------|
                                          Play this second time.

Verse:
e|----------------------------------------------------------|
B|----------------------------------------------------------|
G|-------------------2-2-2-2-2-------------------2-2-2-2-2--|
D|--0-0-0-0-0-0-0-0--2-2-2-2-2--0-0-0-0-0-0-0-0--2-2-2-2-2--|
A|--0-0-0-0-0-0-0-0--0-0-0-0-0--0-0-0-0-0-0-0-0--0-0-0-0-0--|
D|--0-0-0-0-0-0-0-0-------------0-0-0-0-0-0-0-0-------------|
    * * * * * * * *  * * * * *  * * * * * * * *  * * * * *
     (PM)                                                       X2
e|----------------------------------------------------------|
B|----------------------------------------------------------|
G|-------------------2-2-2-2-2-------------------2-2-2-2-2--|
D|--5-5-5-5-5-5-5-5--2-2-2-2-2--5-5-5-5-5-5-5-5--2-2-2-2-2--|
A|--5-5-5-5-5-5-5-5--0-0-0-0-0--5-5-5-5-5-5-5-5--0-0-0-0-0--|
D|--5-5-5-5-5-5-5-5-------------5-5-5-5-5-5-5-5-------------|
    * * * * * * * *  * * * * *  * * * * * * * *  * * * * *
    (PM)

Pre Chorus:
e|-----------------------------------------------------------------|
B|-----------------------------------------------------------------|
G|-----------------------------------------------------------------|
D|--0------0------5------5------7----------------------------------|
A|--0------0------5------5------7----------------------------------|
D|--0------0------5------5------7----------------------------------|


Chorus:
e|-------------------------------------------------------------------|
B|-------------------------------------------------------------------|
G|------------------2-2-2-2-2-2-2-2-----------------2-2-2-2-2-2-2-2--|
D|--0-0-0-0-0-0-0-0-2-2-2-2-2-2-2-2-5-5-5-5-5-5-5-5-2-2-2-2-2-2-2-2--|
A|--0-0-0-0-0-0-0-0-0-0-0-0-0-0-0-0-5-5-5-5-5-5-5-5-0-0-0-0-0-0-0-0--|
D|--0-0-0-0-0-0-0-0-----------------5-5-5-5-5-5-5-5------------------| X2

e|-----------|
B|-----------|
G|---2---2---|
D|---2---2---|
A|---0---0---| < Play this at the end of second time.
D|-----------|


Pre Verse:
e|----------------------------------------[--------------|
B|----------------------------------------[--------------|
G|-------------------------2--------------[--------------| X2
D|--0-------5-------0------2-(x8)---------[---0----------|
A|--0-(x8)--5-(x8)--0-(x8)-0--------------[---0----------|
D|--0-------5-------0---------------------[---0----------|
                                          Play this second time.

Verse:
e|----------------------------------------------------------|
B|----------------------------------------------------------|
G|-------------------2-2-2-2-2-------------------2-2-2-2-2--|
D|--0-0-0-0-0-0-0-0--2-2-2-2-2--0-0-0-0-0-0-0-0--2-2-2-2-2--|
A|--0-0-0-0-0-0-0-0--0-0-0-0-0--0-0-0-0-0-0-0-0--0-0-0-0-0--|
D|--0-0-0-0-0-0-0-0-------------0-0-0-0-0-0-0-0-------------|
    * * * * * * * *  * * * * *  * * * * * * * *  * * * * *
    (PM)
e|---------------------------------------------------------------|
B|---------------------------------------------------------------|
G|-------------------2-2-2-2-2-------------------2-2-2-2--9-/-7--|
D|--5-5-5-5-5-5-5-5--2-2-2-2-2--5-5-5-5-5-5-5-5--2-2-2-2--X-/-X--|
A|--5-5-5-5-5-5-5-5--0-0-0-0-0--5-5-5-5-5-5-5-5--0-0-0-0--7-/-5--|
D|--5-5-5-5-5-5-5-5-------------5-5-5-5-5-5-5-5------------------|
    * * * * * * * *  * * * * *  * * * * * * * *  * * * *
    (PM)


Pre Chorus/ Breakdown:
e|--------------|
B|--------------|
G|--------------|
D|--0------0----|
A|--0------0----|
D|--0------0----|

e|----------------------------------------------------------------|
B|----------------------------------------------------------------|
G|----------------------------------------------------------------|
D|-0-0-0-0---0-0---0-0-0-0-0---0-0-0-0-0---0-0-0-0---0-0----------|  X2
A|-0-0-0-0---0-0---0-0-0-0-0---0-0-0-0-0---0-0-0-0---0-0----------|
D|-0-0-0-0---0-0---0-0-0-0-0---0-0-0-0-0---0-0-0-0---0-0----------|
   * * * *   * *   * * * * *   * * * * *   * * * *   * *
   (PM)
e|--------------------|
B|--------------------|
G|--------------------|
D|--7--5--4--5--4--2--|
A|--7--5--4--5--4--2--|
D|--7--5--4--5--4--2--|
    *  *  *  *  *  *
  (PM)


Chorus:
e|-------------------------------------------------------------------|
B|-------------------------------------------------------------------|
G|------------------2-2-2-2-2-2-2-2-----------------2-2-2-2-2-2-2-2--|
D|--0-0-0-0-0-0-0-0-2-2-2-2-2-2-2-2-5-5-5-5-5-5-5-5-2-2-2-2-2-2-2-2--|
A|--0-0-0-0-0-0-0-0-0-0-0-0-0-0-0-0-5-5-5-5-5-5-5-5-0-0-0-0-0-0-0-0--|
D|--0-0-0-0-0-0-0-0-----------------5-5-5-5-5-5-5-5------------------| X4


Bridge:
e|----------------------------------------------------------|
B|----------------------------------------------------------|
G|-------------------2-2-2-2-2-------------------2-2-2-2-2--|
D|--0-0-0-0-0-0-0-0--2-2-2-2-2--0-0-0-0-0-0-0-0--2-2-2-2-2--|
A|--0-0-0-0-0-0-0-0--0-0-0-0-0--0-0-0-0-0-0-0-0--0-0-0-0-0--|
D|--0-0-0-0-0-0-0-0-------------0-0-0-0-0-0-0-0-------------|
    * * * * * * * *  * * * * *  * * * * * * * *  * * * * *
     (PM)                                                       X4
e|----------------------------------------------------------|
B|----------------------------------------------------------|
G|-------------------2-2-2-2-2-------------------2-2-2-2-2--|
D|--5-5-5-5-5-5-5-5--2-2-2-2-2--5-5-5-5-5-5-5-5--2-2-2-2-2--|
A|--5-5-5-5-5-5-5-5--0-0-0-0-0--5-5-5-5-5-5-5-5--0-0-0-0-0--|
D|--5-5-5-5-5-5-5-5-------------5-5-5-5-5-5-5-5-------------|
    * * * * * * * *  * * * * *  * * * * * * * *  * * * * *
    (PM)

Breakdown:

e|-------|
B|-------|
G|-------|
D|--12/--|
A|--12/--|
D|--12/--|

e|------------------------------------------------------------------------|
B|------------------------------------------------------------------------|
G|------------------------------------------------------------------------|
D|-0-0-0-0--0-0--0-0-0-0-0--0-0-0-0-0--0-0-0-0--0-0--0-0-0-0-0--0-0-0-0-0-|
A|-0-0-0-0--0-0--0-0-0-0-0--0-0-0-0-0--0-0-0-0--0-0--0-0-0-0-0--0-0-0-0-0-|
D|-0-0-0-0--0-0--0-0-0-0-0--0-0-0-0-0--0-0-0-0--0-0--0-0-0-0-0--0-0-0-0-0-|
   * * * *  * *  * * * * *  * * * * *  * * * *  * *  * * * * *  * * * * *
   (PM)
e|---------------------------------------------------------|
B|---------------------------------------------------------|
G|---------------------------------------------------------|
D|-5-5-5-5---5-5---5-5-5-5-5---5-5-5-5-5---5-5-5-5---5-5---|
A|-5-5-5-5---5-5---5-5-5-5-5---5-5-5-5-5---5-5-5-5---5-5---|
D|-5-5-5-5---5-5---5-5-5-5-5---5-5-5-5-5---5-5-5-5---5-5---|
   * * * *   * *   * * * * *   * * * * *   * * * *   * *
   (PM)
e|--------------------|
B|--------------------|
G|--------------------|
D|--7--5--4--5--4--2--|
A|--7--5--4--5--4--2--|
D|--7--5--4--5--4--2--|
    *  *  *  *  *  *
  (PM)
Добавлено: 24.05.2012
Другие материалы по этой песне:
  • Аккорды и текст

Страница создана 24.05.2012
http://primanota.ru/four-year-strong/dumpweed-chords.htm
Привет, Гость.
Предлагаем пройти революционный курс по гитаре.
Подарок от PrimaNota.Ru, забирай!