PrimaNota.ru - самый крупный в мире бесплатный архив песенных текстов, аккордов, табулатур и нот


Four Year Strong - Men Are From Mars Women From Hell - таба, видео

Регистрация Запомнить меня
Войти через:  Facebook Google Twitter Vk Yandex Mail.ru

Four Year Strong - Men Are From Mars Women From Hell - таба, видео

Печатать
Просмотров: 211
Уроки эстрадного вокала в Санкт-Петербурге
FOUR YEAR STRONG - MEN ARE FROM MARS, WOMEN ARE FROM HELL
RISE OR DIE TRYING
TABBED OUT BY GREG JACOBS
TUNING - D STANDARD (DGCFAD)


   INTRO
D|----------------------------------------|
A|----------------------------------------|
F|----------------------------------------|
C|---8888888888888------------------------|
G|---7777777777777------------------------|
D|----------------------------------------|


D|------------------------------------------------------------|
A|------------------------------------------------------------|
F|------------------------------------------------------------|
C|-o-o-o--00000--------------------------------------------9--|
G|-o-o-o--00000----11-11-11--9-9b-7-7-7-9-9b----11-9-7-6-7----|
D|-o-o-o--00000-----------------------------------------------|
          .....

D|--------------------------------------------------------------|
A|--------------------------------------------------------------|
F|--------------------------------------------------------------|
C|-o-o-o--00000-------------------------------------------------|
G|-o-o-o--00000----11-11-11--9-9b-7-7-7-9-9b----00----00---7*---|
D|-o-o-o--00000---------------------------------00-4b-00-4b-----|
          .....                                 ..    ..

D|------------------------------------------------------------|
A|------------------------------------------------------------|
F|------------------------------------------------------------|
C|-o-o-o--00000--------------------------------------------9--|
G|-o-o-o--00000----11-11-11--9-9b-7-7-7-9-9b----11-9-7-6-7----|
D|-o-o-o--00000-----------------------------------------------|
          .....

D|----------------------------------------|
A|----------------------------------------|
F|----------------------------------------|
C|----66677---2~--------------------------|
G|----55555---2~--------------------------|
D|------------0~--------------------------|

   VERSE 1
D|--------------------------------------|
A|--------------------------------------|
F|--------------------------------------|
C|-2~-----66677----22-222-22-222-22-222-|
G|-2~-----55555----22-222-22-222-22-222-|
D|-0~--------------00-000-00-000-00-000-|
                      ...    ...    ...


   PRECHORUS, Strumming may be a little different
D|--------------------------------------------------------------------|
A|--------------------------------------------------------------------|
F|--------------------------------------------------------------------|
C|-777-9-111111--6666---777-9-111111-666---777-9-111111-666---77------|
G|-777-9-111111--7777---777-9-111111-777---777-9-111111-777---77-9999-|
D|-555-7-9-9-9---4444---555-7-9-9-9--444---555-7-9-9-9--444---55-8888-|


  CHORUS
D|--------------------------------------------------------------------------------|
A|--------------------------------------------------------------------------------|
F|-6-66-4-6-4-444444444----------------------6-66-4-6-4-444444444-222222222222222-|
C|-6-66-4-6-4-444444444-4-44-2-4-22222222222-6-66-4-6-4-444444444-222222222222222-|
G|-4-44-2-4-2-222222222-4-44-2-4-22222222222-4-44-2-4-2-222222222-000000000000000-|
D|----------------------2-22-0-2-00000000000--------------------------------------|

D|----------------------------------------------------------------------------------------|
A|----------------------------------------------------------------------------------------|
F|-6-66-4-6-4-444444444----------------------6-66-4-6-4-444444444--22-44-66----22-44------|
C|-6-66-4-6-4-444444444-4-44-2-4-22222222222-6-66-4-6-4-444444444--22-44-66-44-22-44-4444-|
G|-4-44-2-4-2-222222222-4-44-2-4-22222222222-4-44-2-4-2-222222222--00-22-44-44-00-22-3333-|
D|----------------------2-22-0-2-00000000000-----------------------------------22---------|


   INTRO AGAIN, SLIGHTY DIFFERENT
D|------------------------------------------------------------|
A|------------------------------------------------------------|
F|------------------------------------------------------------|
C|-0-0-0--00000--------------------------------------------9--|
G|-0-0-0--00000----11-11-11--9-9b-7-7-7-9-9b----11-9-7-6-7----|
D|-0-0-0--00000-----------------------------------------------|
          .....

D|---------------------------------------------------------|
A|---------------------------------------------------------|
F|---------------------------------------------------------|
C|-0-0-0--00000-------------------------------------753531-|
G|-0-0-0--00000---11-11-11-9-9b-7-7-7-9-9b-00----00-753531-|
D|-0-0-0--00000----------------------------00-4b-00-753531-|
          .....                            ..    .. ......

D|------------------------------------------------------------|
A|------------------------------------------------------------|
F|------------------------------------------------------------|
C|-0-0-0--00000--------------------------------------------9--|
G|-0-0-0--00000----11-11-11--9-9b-7-7-7-9-9b----11-9-7-6-7----|
D|-0-0-0--00000-----------------------------------------------|
          .....

D|------------------------------------------------------------|
A|------------------------------------------------------------|
F|------------------------------------------------------------|
C|-o-o-o--00000--------------------------------------------9--|
G|-o-o-o--00000----11-11-11--9-9b-7-7-7-9-9b----11-9-7-6-7----|
D|-o-o-o--00000-----------------------------------------------|
          .....

D|----------------------------------------|
A|----------------------------------------|
F|----------------------------------------|
C|----66677---2~--------------------------|
G|----55555---2~--------------------------|
D|------------0~--------------------------|

  VERSE 2
D|----------------------|
A|----------------------|
F|-----------------8~~--|
C|-2~~------6~~---------|
G|-2~~------7~~----6~~--|
D|-0~~------4~~----7~~--|

D|--------------------------------------------------|
A|--------------------------------------------------|
F|--------------------------------------------------|
C|-2~-----6-66-6-66-9-99-9-99-10-10--77-7-77-7-9999-|
G|-2~-----7-77-7-77-9-99-9-99-11-11--77-7-99-9-9999-|
D|-0~-----4-44-4-44-7-77-7-77-8--8---99-9-99-9-7777-|
            ..   ..   ..   ..        ..   ..   ....

   BREAKDOWN
D|---------------------------------------------------------------------------------|
A|---------------------------------------------------------------------------------|
F|---------------------------------------------------------------------------------|
C|-2222-222-222--8-7-5--222--12/0--222--------22-22-22-8-7-5--222--12/0--222-------|
G|-2222-222-222--8-7-5--222--12/0--222--------22-22-22-8-7-5--222--12/0--222-------|
D|-0000-000-000--6-5-3--000--12/0--000-3-4-5b-00-00-00-6-5-3--000--12/0--000-2-3-4-|
   .... ... ...         ...        ...        .. .. ..        ...        ...

D|---------------------------------------------------------------------------------|
A|---------------------------------------------------------------------------------|
F|---------------------------------------------------------------------------------|
C|-2222-222-222--8-7-5--222--12/0--222--------22-22-22-8-7-5--222--12/0--222-------|
G|-2222-222-222--8-7-5--222--12/0--222--------22-22-22-8-7-5--222--12/0--222-------|
D|-0000-000-000--6-5-3--000--12/0--000-3-4-5b-00-00-00-6-5-3--000--12/0--000-2-3-4b|
   .... ... ...         ...        ...        .. .. ..        ...        ...


   PRECHORUS AGAIN
D|--------------------------------------------------------------------|
A|--------------------------------------------------------------------|
F|--------------------------------------------------------------------|
C|-777-9-111111--6666---777-9-111111-666---777-9-111111-666---77------|
G|-777-9-111111--7777---777-9-111111-777---777-9-111111-777---77-9999-|
D|-555-7-9-9-9---4444---555-7-9-9-9--444---555-7-9-9-9--444---55-8888-|


  CHORUS
D|--------------------------------------------------------------------------------|
A|--------------------------------------------------------------------------------|
F|-6-66-4-6-4-444444444----------------------6-66-4-6-4-444444444-222222222222222-|
C|-6-66-4-6-4-444444444-4-44-2-4-22222222222-6-66-4-6-4-444444444-222222222222222-|
G|-4-44-2-4-2-222222222-4-44-2-4-22222222222-4-44-2-4-2-222222222-000000000000000-|
D|----------------------2-22-0-2-00000000000--------------------------------------|

D|----------------------------------------------------------------------------------------|
A|----------------------------------------------------------------------------------------|
F|-6-66-4-6-4-444444444----------------------6-66-4-6-4-444444444--22-44-66----22-44------|
C|-6-66-4-6-4-444444444-4-44-2-4-22222222222-6-66-4-6-4-444444444--22-44-66-44-22-44-4444-|
G|-4-44-2-4-2-222222222-4-44-2-4-22222222222-4-44-2-4-2-222222222--00-22-44-44-00-22-3333-|
D|----------------------2-22-0-2-00000000000-----------------------------------22---------|

  END WITH THIS
D|-----------|
A|---------4-|
F|-6666666-6-|
C|-6666666-6-|
G|-4444444-4-|
D|-----------|
Добавлено: 10.06.2012
Другие материалы по этой песне:
  • Аккорды и текст

Страница создана 10.06.2012
http://primanota.ru/four-year-strong/men-are-from-mars-women-from-hell-chords.htm
Привет, Гость.
Предлагаем пройти революционный курс по гитаре.
Подарок от PrimaNota.Ru, забирай!