PrimaNota.ru - самый крупный в мире бесплатный архив песенных текстов, аккордов, табулатур и нот


Firewind - The Longest Day - текст песни, бас-таба, видео

Регистрация Запомнить меня
Войти через:  Facebook Google Twitter Vk Yandex Mail.ru

Firewind - The Longest Day - текст песни, бас-таба, видео

Печатать
Просмотров: 175
Song:The Longest Day
Artist:Firewind
Tabbed by:Bass_Lord32
E-Mail:The_Stallion_32@live.com


Tuning:EADG


Intro:(0:00)-(0:14)
G|--------------------------------------------------------------|
D|-------------------------10--10-12-13-15---15-13-13\12-12\10--|
A|------3-5-6-8---8/11-10---------------------------------------|
E|--8-----------------------------------------------------------|


Verse 1:(0:15)-(0:59)
G|----------------------------------------------------------|
D|----------------------------------------------------------|
A|-----------11------------10------------11-------------10--|
E|--8----1------4/8----1------4/8----1------4/8----1--------|


G|----------------------------------------------------|
D|--6-6-8---------10-----10810--------8---------------|
A|--------10--8-10----11-------10-8--8--10-8-5555666--|
E|----------------------------------------------------|


Chorus:(1:00)-1:28)
G|-------------------------------------------------------------------|
D|--8-------------10--10-8-----------8-------------10----8108--------|
A|-------10--10-8----------10--10-12------10--10-8-----------10-8-6--|
E|-------------------------------------------------------------------|


G|--------------------------------------------------|
D|--8-------------10--10-8-----------8--------8-12--|
A|-------10--10-8----------10--10-12------10--------|
E|--------------------------------------------------|


Verse 2:(1:29)-(2:13)
G|---------------------------------------------------------|
D|---------------------------------------------------------|x2
A|---------------------------------------------------------|
E|--8--8-8-88-8--1--1-1-11-1/4-8--8-8-88-8--1--1-1-11-1/3--|


G|-------------------------------------------------------|
D|-------------------------------------------------------|
A|----------46----------810---------68-1010101010101010--|
E|--4--4-464---8--8-8108----6--6-686---------------------|


Chorus:(2:14)-(2:42)
G|-------------------------------------------------------------------|
D|--8-------------10--10-8-----------8-------------10----8108--------|
A|-------10--10-8----------10--10-12------10--10-8-----------10-8-6--|
E|-------------------------------------------------------------------|


G|--------------------------------------------------|
D|--8-------------10--10-8-----------8--------8-12--|
A|-------10--10-8----------10--10-12------10--------|
E|--------------------------------------------------|


Bridge:(2:43)-(3:12)
G|----------------------------------|
D|--------2-------------1213-1210---|x2
A|--10-6----8--10-6---13---------8--|
E|----------------------------------|


Solo:(3:13)-(3:45)
G|-------------------------------------------------------------------------------------|
D|-------------------------------------------------------------------------------------|
A|-------------------------------------------------------------------------------------|
E|--5--5-1--1-5--5-3--3-1---1-3----5--5-1--1-5--5-3--3-1--1-5--5-3----1-1-1-1-3-3-3-3--|


Alt. Chorus:(3:46)-(4:44)
G|------------------------------------------------------------------------------|
D|--------7--------------------7-----------------7---------------------7--------|x2
A|--8----------10---5-----3-------8-10-----8----------10---5------3-------10-7--|
E|-----10-------------5-7---------------------10-------------5-7----------------|


Outro:(4:45)-(4:58)                    (4:59)-END
G|------------------------------------||--------------------|
D|--7--------------14-12--10----------||--------------------|Repeat until song ends.
A|------7/10-12---------------10-12---||7/10-12----7/10-12--|
E|------------------------------------||--------------------|


*Note*: The altered chorus (Alt. Chorus) isn't optional.  It's played differently than 
normal chorus and is longer.  Just clarifying.

*Note*: Play with the song and listen carefully for exact timings. In a couple places i 
my own fills, and they may not sound perfect.

*BTW*: I'l be posting more Firewind tabs for Bass soon. ENJOY!!!


END
Добавлено: 29.07.2012
Другие материалы по этой песне:

Страница создана 21.04.2012
http://primanota.ru/firewind/the-longest-day-chords.htm
Привет, Гость.
Предлагаем пройти революционный курс по гитаре.
Подарок от PrimaNota.Ru, забирай!