PrimaNota.ru - самый крупный в мире бесплатный архив песенных текстов, аккордов, табулатур и нот


Firewind - Into The Fire - таба, видео

Регистрация Запомнить меня
Войти через:  Facebook Google Twitter Vk Yandex Mail.ru

Firewind - Into The Fire - таба, видео

Печатать
Просмотров: 147
Song: “Into the Fire”
Artist: Firewind
Album: The Premonition

Didn't find a tab for this great song, so I did my best to get it down by watching Gus
them. These are the very few bits of the song that I managed to tab and I believe are
Sadly, it's only the rhythm part (the leads are just ridiculous and I rather not 
I'm confident that the song was played with the guitars tuned down a whole step.

1:12 – 1:39 (Palm mute all the “0”s)

D|---------------------------------------------------------------|
A|---------------------------------------------------------------|
F|---------------------------------------------------------------|
C|---------------------------------------------------------------|
G|-------8p7p5-7-------------8p7p5-7-------------8p7p5-7---------|
D|-0-0-0---------0-0-0-0-0-0---------0-0-0-0-0-0-----------------|

D|---------------------------------------------------------------|
A|---------------------------------------------------------------|
F|---------------------------------------------------------------|
C|---------------------------------------------------------------|
G|---------------------------3-----------------------------------|
D|-0-0-0-7-7-7-5-5-5-4-4-0---1-----------------------------------|

   |---------PM----------|

1:39 – 1:49 (Palm mute all the “0”s)

D|---------------------------------------------------------------|
A|---------------------------------------------------------------|
F|---------------------------------------------------------------|
C|---------------------------------------------------------------|
G|-------8p7p5-7-------------8p7p5-7-------------8p7p5-7---------|
D|-0-0-0---------0-0-0-0-0-0---------0-0-0-0-0-0-----------------|

D|---------------------------------------------------------------|
A|---------------------------------------------------------------|
F|---------------------------------------------------------------|
C|---------------------------------------------------------------|
G|---------------------10----------------------------------------|
D|-4-4-4-5-5-5-7-7-0---8-----------------------------------------|

  |-------PM-------|

D|---------------------------------------------------------------|
A|---------------------------------------------------------------|
F|---------------------------------------------------------------|
C|-------------9-------------10------7-------------9-------------|
G|-------------7-------------8-------5-------------7-------------|
D|-0-0-0-0-0-0---0-0-0-0-0-0---0-0-0---0-0-0-0-0-0---0-0-0-0-0-0-|

D|---------------------------------------------------------------|
A|---------------------------------------------------------------|
F|---------------------------------------------------------------|
C|-10------8-------------9-------------10-------7----------------|
G|-8-------6-------------7-------------8--------5----------------|
D|---0-0-0---0-0-0-0-0-0---0-0-0-0-0-0----0-0-0------------------|

For this next section, palm mute the notes between the power chords

D|---------------------------------------------------------------|
A|---------------------------------------------------------------|
F|---------------------------------------------------------------|
C|---------------------------------------------------------------|
G|-3-------3-------2-------2-5-3---------------------------------|
D|-5-5-5-5-5-5-5-5-3-3-3-3-0-3-1---------------------------------|

Unfortunately, this is all I got down. I hope this was at least somewhat helpful.
Добавлено: 06.05.2012
Другие материалы по этой песне:

Страница создана 22.03.2012
http://primanota.ru/firewind/into-the-fire-chords.htm
Привет, Гость.
Предлагаем пройти революционный курс по гитаре.
Подарок от PrimaNota.Ru, забирай!