PrimaNota.ru - самый крупный в мире бесплатный архив песенных текстов, аккордов, табулатур и нот


Firewind - I Am The Anger - текст песни, таба, видео

Регистрация Запомнить меня
Войти через:  Facebook Google Twitter Vk Yandex Mail.ru

Firewind - I Am The Anger - текст песни, таба, видео

Печатать
Просмотров: 205
               |------   \        |       /
               |          \       |      /
               |--         \      |     /
               |            \     |    /
               |   IRE       \____|___/   IND

                       Iam The Anger:
e-5\-3--3-------|
B------2--------|
G---------10\-4-|
D---------10\-4-|
A----------8\-2-|
E---------------|


e-4/---6--6/----8---8/----10--10/---12----12/----14---14/---16---|
B----------------------------------------------------------------|
G---2/--4---4/---6----6/----8----8/---10-----10/---12----12/--14-|
D----------------------------------------------------------------|
A----------------------------------------------------------------|
E----------------------------------------------------------------|


e-18------------|
B------16b------|
G---16-----15pm-|
D---------------|
A---------------|
E---------------|

e-2/-14------------15-----------|
B-2/-14----17-16-15--16-17------|
G--------14---------------17-15-|
D-------------------------------|
A-------------------------------|
E-------------------------------|


e---15--15--15--15-----------------------------------------|
B-14--14--14--14--14-15-14-15-14-15-14-15-14--14--14--14---|
G-------------------------------------------15--15--15--15-|
D----------------------------------------------------------|
A----------------------------------------------------------|
E----------------------------------------------------------|


e---------------|
B---------------|
G-7-9-7-6-7-----|
D--8--------8pm-|
A---------------|
E---------------|


e-----------------------|
B------15---------------|
G-15-16--15-16-18-16-15-|
D-----------------------|
A-----------------------|
E-----------------------|x14


e----------------------------------|
B----------------------------------|
G-----------7-9----------8-----7pm-|
D-4/-10--9-8----8-8-7-6-9-9-8-6----|
A----------------------------------|
E----------------------------------|


e------15---------------|
B-15-16--15-16-18-16-15-|
G-----------------------|
D-----------------------|
A-----------------------|
E-----------------------|x14


e--------------------------------|
B---------------------------18---|
G-12/-14-14/-16-16/-18-19-18--17-|
D--------------------------------|
A--------------------------------|
E--------------------------------|


e------15---------------|
B-15-16--15-16-18-16-15-|
G-----------------------|
D-----------------------|
A-----------------------|
E-----------------------|x14

Tab key:

the only thing you will need is this:

pm=palm mute
/=slide up
\=slide down
____________________________________________________________________________
                  THE END!!!!!!!!!!!!!!!
____________________________________________________________________________


Song:I AM THE ANGER

Artist:FIREWIND

Part of the song:SOLO

Tabbed by:ELIAS STASI
Добавлено: 14.06.2012
Другие материалы по этой песне:

Страница создана 03.03.2012
http://primanota.ru/firewind/i-am-the-anger-chords.htm
Привет, Гость.
Предлагаем пройти революционный курс по гитаре.
Подарок от PrimaNota.Ru, забирай!