PrimaNota.ru - самый крупный в мире бесплатный архив песенных текстов, аккордов, табулатур и нот


Firewind - Head Up High - таба, видео

Регистрация Запомнить меня
Войти через:  Facebook Google Twitter Vk Yandex Mail.ru

Firewind - Head Up High - таба, видео

Печатать
Просмотров: 234
-------------------------------------------------------------------------------
                             Firewind-Head Up High
-------------------------------------------------------------------------------
Tabbed by:brokenunder
Email:tears--dont--fall@hotmail.co.uk

Tuning:DGCFAd

This is a brilliant song off the new firewind album. i havent got the solo done yet cuz 
quite insane and is both the keyboards and guitar soloing.
please rate and comment :)

Intro

Lead-Gus
e|---------------------------------------------------------------------------|
B|---------------------------------------------------------------------------|
G|-<7>-7-7--8-<5>-5-5--7-<3>-3-3--5-<2>--3-2---------------------------------|
D|----5-5-5------5-5-5------5-5-5------------3-------------------------------|
A|---------------------------------------------1-0---------------------------|
E|-------------------------------------------------1-------------------------|
      PM--|      PM--|      PM-----------------------------------------------|

Rhythm-Bob
e|------|------------------------------------------------------------------|
B|------|------------------------------------------------------------------|
G|------|------------------------------------------------------------------|
D|-555--|--5--10-8--3------------------------------------------------------|
A|-555--|--5--10-8--3------------------------------------------------------|
E|-333--|--3--8--6--1------------------------------------------------------|
   ^twice at the start of the lead

Verse
e|-------------------------------------------------------------------------|
B|-------------------------------------------------------------------------|
G|-------------------------------------------------------------------------|
D|-3-55-5-55-5-55------------3-55-5-55-5-55--------------------------------|
A|-3-55-5-55-5-55----1p0-----3-55-5-55-5-55-------3------------------------|
E|-1/33-3-33-3-33-------1----1/33-3-33-3-33----356-651---------------------|
          PM   PM                   PM   PM      ???

Pre-chorus

e|-------------------------------------------------------------------------|
B|-------------------------------------------------------------------------|
G|-------------------------------------------------------------------------|
D|-666-666-6-333-333-3-666-666-6--8--5-------------------------------------|
A|-666-666-6-333-333-3-666-666-6--8--5-------------------------------------|
E|-444-444-4-111-111-1-444-444-4--6~-3~------------------------------------|

Chorus
e|------------|------------|------------|------------------------------------|
B|------------|------------|------------|------------------------------------|
G|-5----------|-5-----8----|-5----------|------------------------------------|
D|-5--6--3--8-|-5--6--8--8-|-5--6--3--8-|-6-66666666666-3-5-6-8--------------|
A|-3--6--3--8-|-3--6--6--8-|-3--6--3--8-|-6-66666666666-3-5-6-8--------------|
E|----4--1--6-|----4-----6-|----4--1--6-|-4-44444444444-1-3-4-6--------------|
                                            PM-------------------------------|

Intro
Verse
Chorus

Solo- Havent worked it out yet. should have it figured out in the next few days :)

-when rhythm guitar come sin at the end of the solo it plays the pre-chorus


Chorus(ending on A#5)
Добавлено: 01.03.2012
Другие материалы по этой песне:

Страница создана 01.03.2012
http://primanota.ru/firewind/head-up-high-chords.htm
Привет, Гость.
Предлагаем пройти революционный курс по гитаре.
Подарок от PrimaNota.Ru, забирай!