PrimaNota.ru - самый крупный в мире бесплатный архив песенных текстов, аккордов, табулатур и нот


Firewind - Breaking The Silence - таба, бас-таба, драм-таба, видео

Регистрация Запомнить меня
Войти через:  Facebook Google Twitter Vk Yandex Mail.ru

Firewind - Breaking The Silence - таба, бас-таба, драм-таба, видео

Печатать
Просмотров: 241
Авторы текста: Tara Teresa
Keyboard Intro 00:00 - 00:05

$
Guitars enter
e||---------------------------------|--------------------------------||
B||---------------------------------|--------------------------------||
G||---------------------------------|--3-----------------------------||
D||--0------------------------------|--3-----3------------------3-2--||
A||--0-----0------------------------|--1-1-1-1-1-1-1-1-1-1-1-1--0-0--||
D||--0-0-0-0-0-0-0-0-0-0-0-0-2-3-5--|--------------------------------||

e||---------------------------------|--------------------------------||
B||---------------------------------|--------------------------------||
G||---------------------------------|--3-----------------------------||
D||--0------------------------------|--3-----3------------------3-7--||
A||--0-----0------------------------|--1-1-1-1-1-1-1-1-1-1-1-1--0-4--||
D||--0-0-0-0-0-0-0-0-0-0-0-0-2-3-5--|--------------------------------||

e||---------------------------------|--------------------------------||
B||---------------------------------|--------------------------------||
G||---------------------------------|--3-----------------------------||
D||--0------------------------------|--3-----3------------------3-2--||
A||--0-----0------------------------|--1-1-1-1-1-1-1-1-1-1-1-1--0-0--||
D||--0-0-0-0-0-0-0-0-0-0-0-0-2-3-5--|--------------------------------||

e||---------------------------------|-------------||
B||---------------------------------|-------------||
G||---------------------------------|-------------||
D||--0------------------------------|--8---5---7--||
A||--0-----0------------------------|--8---5---7--||
D||--0-0-0-0-0-0-0-0-0-0-0-0-2-3-5--|--6---3---5--||


Verse 1: Tara Teresa Sings (No Guitar)


Verse 2: Apollo Papathanasio Sings (Guitar enters at 00:35)
e||------|------------------------------------|------------------------------------||
B||------|------------------------------------|------------------------------------||
G||------|------------------------------------|------------------------------------||
D||------|--0---------------------------------|--0---------------------------------||
A||------|--0-----0----------------------3h5--|--0-----0-----------8-----5------7--||
D||--X\--|--0-0-0-0-0-0-0-0-0-0-0-0--5h7------|--0-0-0-0-0-0-0-0-0---0-7---0-10----||

e||------|------------------------------------|---------||
B||------|------------------------------------|---------||
G||------|------------------------------------|--5---2--||
D||------|--0---------------------------------|--5---2--||
A||------|--0-----0----------------------3h5--|--3---0--||
D||--X\--|--0-0-0-0-0-0-0-0-0-0-0-0--5h7------|---------||

Pre-Chorus
e||-----------|-----------|-----------|-----------||
B||-----------|-----------|-----------|-----------||
G||-----------|-----------|-----------|-----------||
D||-----3--2--|-----------|-----3--5--|--3--2--3--||
A||--1--------|--3--1--0--|-----------|-----------||
D||-----------|-----------|--5--------|-----------||

e||--------------------------------------||
B||--------------------------------------||
G||--------------------------------------|| x2
D||--------------------------------------||
A||-1p0----------------------------------||
D||-1p0-0-0-0-0-0-0-0-0-0-0-0-0-0-0-0-0--||

e||-----------|-----------|-----------|-----------||
B||-----------|-----------|-----------|-----------||
G||-----------|-----------|-----------|-----------||
D||-----3--2--|-----------|-----3--5--|--3--2--3--||
A||--1--------|--3--1--0--|-----------|-----------||
D||-----------|-----------|--5--------|-----------||

e||----------|----------||
B||----------|----------||
G||--2-2--3--|----------||
D||--2-2--3--|--5-5--7--||
A||--0-0--1--|--2-2--4--||
D||----------|----------||

Chorus

e||---------------------------------|-------------------------------------||
B||---------------------------------|-------------------------------------||
G||---------------------------------|-------------------------------------||
D||--0------------------------------|--0----------------------------8.\7--|| 
A||--0-----0------------------------|--0-----0----------------------6.\5--||
D||--0-0-0-0-0-0-0-0-0-0-0-0-0-0-0--|--0-0-0-0-0-0-0-0-0-0-0-0-0-0--------||

e||---------------------------------|-----------||
B||---------------------------------|-----------||
G||---------------------------------|--3--4--6--||
D||--0------------------------------|--3--5--7--|| 
A||--0-----0------------------------|--1--2--4--||
D||--0-0-0-0-0-0-0-0-0-0-0-0-0-0-0--|-----------||

e||---------------------------------|------------------------------------||
B||---------------------------------|------------------------------------||
G||---------------------------------|------------------------------------||
D||--0------------------------------|--0----------------------------8\7--|| 
A||--0-----0------------------------|--0-----0----------------------6\5--||
D||--0-0-0-0-0-0-0-0-0-0-0-0-0-0-0--|--0-0-0-0-0-0-0-0-0-0-0-0-0-0-------||

e||---------------------------------|-----------||
B||---------------------------------|-----------||
G||---------------------------------|--3--4--6--||
D||--0------------------------------|--3--5--7--|| 
A||--0-----0------------------------|--1--2--4--||
D||--0-0-0-0-0-0-0-0-0-0-0-0-0-0-0--|-----------||


BAck to the top, Go to $

Guitars stops at 02:40 (Break stars)

Guitar solo enters at 02:58; but i dont have it sorry,ill give you the main scale for it

e||-----------------------------------13-15-16--||
B||--------------------------13-15-16-----------||
G||--------------------13-15--------------------||
D||--------------13-15--------------------------||
A||--------13-15--------------------------------||
D||--13-15--------------------------------------||

Back to Chorus

Outro

e||---------------------------------|--------------------------------||
B||---------------------------------|--------------------------------||
G||---------------------------------|--3-----------------------------||
D||--0------------------------------|--3-----3------------------3-2--||
A||--0-----0------------------------|--1-1-1-1-1-1-1-1-1-1-1-1--0-0--||
D||--0-0-0-0-0-0-0-0-0-0-0-0-2-3-5--|--------------------------------||

e||---------------------------------|---------------------------------------------------||
B||---------------------------------|---------------------------------------------------||
G||---------------------------------|------------------------------------------------7--||
D||--0------------------------------|------------------------------------------------7--||
A||--0-----0------------------------|--8-8p7p5--8--8p7p5--10-10p9p7--10-10p9p7-------5--||
D||--0-0-0-0-0-0-0-0-0-0-0-0-0-0-0--|-------------------------------------------X\---0--||

Добавлено: 08.03.2012
Другие материалы по этой песне:

Страница создана 08.03.2012
http://primanota.ru/firewind/breaking-the-silence-chords.htm
Привет, Гость.
Предлагаем пройти революционный курс по гитаре.
Подарок от PrimaNota.Ru, забирай!