PrimaNota.ru - самый крупный в мире бесплатный архив песенных текстов, аккордов, табулатур и нот


Fear Factory - Regenerate - таба, видео

Регистрация Запомнить меня
Войти через:  Facebook Google Twitter Vk Yandex Mail.ru

Fear Factory - Regenerate - таба, видео

Печатать
Просмотров: 57
Авторы: Burton C. Bell, Dino Cazares

|--------------------------------------------------------------------------------------------------------|
|                                        FEAR FACTORY - REGENERATE                                       |
|                                          Album: Genexus (2015)                                         |
|                                            Tab by Godspeedy                                            |
|--------------------------------------------------------------------------------------------------------|

                   If you have questions or corrections feel free to send me a message:
                                    https://www.facebook.com/Godspeedy14
                     
                 Also check out my Youtube channel: http://www.youtube.com/user/Godspeedy14

                        *************************************************************
                        * NOTE: If you need a playthrough, check out my cover here: *
                        *       https://www.youtube.com/watch?v=qLVGgAHoQZU         *
                        *************************************************************

                                        Tuning: 7 strings ADGCFAD
                                                    
*********************************************GUITAR NOTATIONS*********************************************
*                                                                                                        *
*                                      | *   palm mute           |                                       *
*                                      | ~   vibrato             |                                       *
*                                      | П   downstroke          |                                       *
*                                      | V   upstroke            |                                       *
*                                                                                                        *
**********************************************************************************************************

|--------------------------------------------------------------------------------------------------------|
|                                          INTRO (00:00-00:44)                                           |
|--------------------------------------------------------------------------------------------------------|

Guitars 1 and 2 (w/ dist)

   П V П V П V П                 П           П        П V П V П V П                 П           П
D|------------------|-------|-----------|-----------|------------------|-------|-----------|-----------|
A|------------------|-------|-----------|-----------|------------------|-------|-----------|-----------|
F|------------------|-------|-----------|-----------|------------------|-------|-----------|-----------|
C|------------------|-------|-----------|-----------|------------------|-------|-----------|-----------|
G|------------------|-------|----4------|----2------|------------------|-------|----4------|----7------|
D|-------------5----|-------|----2------|----0------|-------------5----|-------|----2------|----5------|
A|-5-5-5-5-5-5-3----|-------|-----------|-----------|-5-5-5-5-5-5-3----|-------|-----------|-----------|
   * * * * * *                                        * * * * * *

   П V П V П V П     П V П V   П     П V П V П     П V П V   П  П  П  П     П V П V
D|---------------------------|-----------------------------|------------------------|
A|---------------------------|-----------------------------|------------------------|
F|---------------------------|-----------------------------|------------------------|
C|---------------------------|-----------------------------|------------------------|
G|---------------------------|-----------------------------|------------------------|
D|---------------------------|-----------------------------|------------------------|
A|-5-5-5-5-5-5-3-----3-3-3-3-|-3-----3-3-3-3-3-----3-3-3-3-|-3--3--3--7-----7-7-7-7-|
   * * * * * * *     * * * *   *     * * * * *     * * * *   *  *  *  *     * * * *
  
   П    П V П V П    П V П V   П  П  П  П     П V П V   П     П V П V П     П V П V
D|---------------------------|------------------------|-----------------------------|
A|---------------------------|------------------------|-----------------------------|
F|---------------------------|------------------------|-----------------------------|
C|---------------------------|------------------------|-----------------------------|
G|---------------------------|------------------------|-----------------------------|
D|---------------------------|------------------------|-----------------------------|
A|-7----7-7-7-7-5----5-5-5-5-|-5--5--5--3-----3-3-3-3-|-3-----3-3-3-3-3-----3-3-3-3-|
   *    * * * * *    * * * *   *  *  *  *     * * * *   *     * * * * *     * * * *

   П  П  П  П     П V П V   П    П V П
D|------------------------|------------------------|
A|------------------------|------------------------|
F|------------------------|------------------------|
C|------------------------|------------------------|
G|------------------------|----------9-------------|
D|------------------------|----------7-------------|
A|-3--3--3--7-----7-7-7-7-|-7----7-7---------------|
   *  *  *  *     * * * *   *    * *

   П  П  П V П  П V П  П V П   П V П  П V П  П V П V П V ----|
D|---------------------------|---------------------------|   |
A|---------------------------|---------------------------|   |
F|---------------------------|---------------------------|   |
C|---------------------------|---------------------------|   |
G|---------------------------|---------------------------|   |
D|-5-------------------------|---------------------------|   |
A|-3--3--3-3-3--3-3-3--3-3-3-|-3-3-3--3-3-3--3-3-3-3-3-3-|   |
      *  * * *  * * *  * * *   * * *  * * *  * * * * * *     |
                                                             | x3
   П  П  П V П  П V П  П V П   П V П  П V П  П V П V П V     |
D|---------------------------|---------------------------|   |
A|---------------------------|---------------------------|   |
F|---------------------------|---------------------------|   |
C|---------------------------|---------------------------|   |
G|---------------------------|---------------------------|   |
D|-9-------------------------|-7-------------------------|   |
A|-7---7--7-7-7--7-7-7-7-7-7-|-5---5--5-5-5--5-5-5-5-5-5-|   |
       *  * * *  * * * * * *       *  * * *  * * * * * * ----|

   П  П  П V П  П V П  П V П   П V П  П V П  П V П V П V
D|---------------------------|---------------------------|
A|---------------------------|---------------------------|
F|---------------------------|---------------------------|
C|---------------------------|---------------------------|
G|---------------------------|---------------------------|
D|-5-------------------------|---------------------------|
A|-3--3--3-3-3--3-3-3--3-3-3-|-3-3-3--3-3-3--3-3-3-3-3-3-|
      *  * * *  * * *  * * *   * * *  * * *  * * * * * *

   П   П  П V П  П V П  П V П   П V П V П V П V П  П  П
D|----------------------------|--------------------------|
A|----------------------------|--------------------------|
F|----------------------------|--------------------------|
C|----------------------------|--------------------------|
G|----------------------------|--------------------------|
D|-7--------------------------|-5-5-5-5-5-5-5-5-4--4--4--|
A|-5---5--5-5-5--5-5-5--5-5-5-|--------------------------|
       *  * * *  * * *  * * *   * * * * * * * * *  *  *

|--------------------------------------------------------------------------------------------------------|
|                                          VERSE (00:44-01:06)                                           |
|--------------------------------------------------------------------------------------------------------|

Guitars 1 and 2 (w/ dist)

   П V П  П  П V П  П V П             П V П  П   П V П  П  П V П  П V П                   П V П  П
D|-----------------------------|---------------|-----------------------------|---------------------|
A|-----------------------------|---------------|-----------------------------|---------------------|
F|-----------------------------|---------------|-----------------------------|---------------------|
C|-----------------------------|---------------|-----------------------------|---------------------|
G|-----------------------------|---------------|-----------------------------|---------------------|
D|-----------------------------|---------------|-----------------------------|---------------------|
A|-7-7-7--5--7-7-7--5-5-5------|------5-5-5--5-|-7-7-7--5--7-7-7--5-5-5------|------------5-5-5--5-|
   * * *  *  * * *  * * *             * * *  *   * * *  *  * * *  * * *                   * * *  *

   П V П  П  П V П  П V П             П V П  П   П V П  П  П V П  П V П  П   П V П  П  П V П  П  П V П
D|-----------------------------|---------------|---------------------------|----------------------------|
A|-----------------------------|---------------|---------------------------|----------------------------|
F|-----------------------------|---------------|---------------------------|----------------------------|
C|-----------------------------|---------------|---------------------------|----------------------------|
G|-----------------------------|---------------|---------------------------|----------------------------|
D|-----------------------------|---------------|---------------------------|----------------------------|
A|-3-3-3--3--3-3-3--3-3-3------|------3-3-3--3-|-2-2-2--2--2-2-2--2-2-2--2-|-5-5-5--5--5-5-5--5--5-5-5--|
   * * *  *  * * *  * * *             * * *  *   * * *  *  * * *  * * *  *   * * *  *  * * *  *  * * * 

   П V П  П  П V П  П V П             П V П  П   П V П  П  П V П  П V П                   П V П  П
D|-----------------------------|---------------|-----------------------------|---------------------|
A|-----------------------------|---------------|-----------------------------|---------------------|
F|-----------------------------|---------------|-----------------------------|---------------------|
C|-----------------------------|---------------|-----------------------------|---------------------|
G|-----------------------------|---------------|-----------------------------|---------------------|
D|-----------------------------|---------------|-----------------------------|---------------------|
A|-7-7-7--5--7-7-7--5-5-5------|------5-5-5--5-|-7-7-7--5--7-7-7--5-5-5------|------------5-5-5--5-|
   * * *  *  * * *  * * *             * * *  *   * * *  *  * * *  * * *                   * * *  *

   П V П  П  П V П  П V П             П V П  П   П V П  П  П V П  П V П  П   П V П  П  П V П  П V П  П
D|-----------------------------|---------------|---------------------------|----------------------------|
A|-----------------------------|---------------|---------------------------|----------------------------|
F|-----------------------------|---------------|---------------------------|----------------------------|
C|-----------------------------|---------------|---------------------------|----------------------------|
G|-----------------------------|---------------|---------------------------|----------------------------|
D|-----------------------------|---------------|---------------------------|----------------------------|
A|-3-3-3--3--3-3-3--3-3-3------|------3-3-3--3-|-2-2-2--2--2-2-2--2-2-2--2-|-5-5-5--5--5-5-5--5-5-5--5--|
   * * *  *  * * *  * * *             * * *  *   * * *  *  * * *  * * *  *   * * *  *  * * *  * * *  *

|--------------------------------------------------------------------------------------------------------|
|                                        PRE-CHORUS (01:06-01:17)                                        |
|--------------------------------------------------------------------------------------------------------|

Guitars 1 and 2 (w/ dist)

   П   П  П   П   П V   П   П  П   П  П V П V   П   V  П  V  П  V  П  V   П  V  П  V  П V П V П V
D|--------------------|-----------------------|-------------------------|-------------------------|
A|--------------------|-----------------------|-------------------------|-------------------------|
F|--------------------|-----------------------|-------------------------|-------------------------|
C|--------------------|-----------------------|-------------------------|-------------------------|
G|--------------------|-----------------------|-7---7--7--7--7--7--7--7-|-6--6--6--6--------------|
D|-9---7--9---7-------|-9---7--9---7----------|-5---5--5--5--5--5--5--5-|-4--4--4--4--4-4-4-4-4-4-|
A|-7---5--7---5---5-5-|-7---5--7---5--5-5-5-5-|-------------------------|-------------------------|
                  * *                 * * * *                                         * * * * * *

   П   П  П   П   П V   П   П  П   П  П V П V   П   V  П  V  П  V  П  V   П V П V П V П V П
D|--------------------|-----------------------|-------------------------|-------------------------|
A|--------------------|-----------------------|-------------------------|-------------------------|
F|--------------------|-----------------------|-------------------------|-------------------------|
C|--------------------|-----------------------|-------------------------|-------------------------|
G|--------------------|-----------------------|-------------------------|-------------------------|
D|-9---7--9---7-------|-9---7--9---7----------|-2---2--2--2--2--2--2--2-|-5-5-5-5-5-5-5-5-5-------|
A|-7---5--7---5---5-5-|-7---5--7---5--5-5-5-5-|-0---0--0--0--0--0--0--0-|-------------------------|
                  * *                 * * * *                             * * * * * * * * *

|--------------------------------------------------------------------------------------------------------|
|                                          CHORUS (01:17-01:39)                                          |
|--------------------------------------------------------------------------------------------------------|

Guitars 1 and 2 (w/ dist)

   П  П  П V П  П V П  П V П   П V П  П V П  П V П V П V ----|
D|---------------------------|---------------------------|   |
A|---------------------------|---------------------------|   |
F|---------------------------|---------------------------|   |
C|---------------------------|---------------------------|   |
G|---------------------------|---------------------------|   |
D|-5-------------------------|---------------------------|   |
A|-3--3--3-3-3--3-3-3--3-3-3-|-3-3-3--3-3-3--3-3-3-3-3-3-|   |
      *  * * *  * * *  * * *   * * *  * * *  * * * * * *     |
                                                             | x3
   П  П  П V П  П V П  П V П   П V П  П V П  П V П V П V     |
D|---------------------------|---------------------------|   |
A|---------------------------|---------------------------|   |
F|---------------------------|---------------------------|   |
C|---------------------------|---------------------------|   |
G|---------------------------|---------------------------|   |
D|-9-------------------------|-7-------------------------|   |
A|-7---7--7-7-7--7-7-7-7-7-7-|-5---5--5-5-5--5-5-5-5-5-5-|   |
       *  * * *  * * * * * *       *  * * *  * * * * * * ----|

   П  П  П V П  П V П  П V П   П V П  П V П  П V П V П V
D|---------------------------|---------------------------|
A|---------------------------|---------------------------|
F|---------------------------|---------------------------|
C|---------------------------|---------------------------|
G|---------------------------|---------------------------|
D|-5-------------------------|---------------------------|
A|-3--3--3-3-3--3-3-3--3-3-3-|-3-3-3--3-3-3--3-3-3-3-3-3-|
      *  * * *  * * *  * * *   * * *  * * *  * * * * * *

   П   П  П V П  П V П  П V П   П V П V П V П V П V П V П V
D|----------------------------|-----------------------------|
A|----------------------------|-----------------------------|
F|----------------------------|-----------------------------|
C|----------------------------|-----------------------------|
G|----------------------------|-----------------------------|
D|-7--------------------------|-5-5-5-5-5-5-5-5-4-4-4-4-4-4-|
A|-5---5--5-5-5--5-5-5--5-5-5-|-----------------------------|
       *  * * *  * * *  * * *   * * * * * * * * * * * * * * 

|--------------------------------------------------------------------------------------------------------|
|                                         VERSE 2 (01:39-02:06)                                          |
|--------------------------------------------------------------------------------------------------------|

Guitars 1 and 2 (w/ dist)

   П V П  П  П V П  П V П             П V П  П
D|-----------------------------|---------------|
A|-----------------------------|---------------|
F|-----------------------------|---------------| x2
C|-----------------------------|---------------| 
G|-----------------------------|---------------|
D|-----------------------------|---------------|
A|-7-7-7--5--7-7-7--5-5-5------|------5-5-5--5-|
   * * *  *  * * *  * * *             * * *  * 
   
   П V П  П  П V П  П V П             П V П  П   П V П  П  П V П  П V П                   П V П  П
D|-----------------------------|---------------|-----------------------------|---------------------|
A|-----------------------------|---------------|-----------------------------|---------------------|
F|-----------------------------|---------------|-----------------------------|---------------------|
C|-----------------------------|---------------|-----------------------------|---------------------|\
G|-----------------------------|---------------|-----------------------------|---------------------| \
D|-----------------------------|---------------|-----------------------------|---------------------|  \
A|-7-7-7--5--7-7-7--5-5-5------|------5-5-5--5-|-7-7-7--5--7-7-7--5-5-5------|------------5-5-5--5-|   \
   * * *  *  * * *  * * *             * * *  *   * * *  *  * * *  * * *                   * * *  *      \
                                                                                                         x2
   П V П  П  П V П  П V П             П V П  П   П V П  П  П V П  П V П  П   П V П  П  П V П  П V П  П   /
D|-----------------------------|---------------|---------------------------|----------------------------|
A|-----------------------------|---------------|---------------------------|----------------------------|
F|-----------------------------|---------------|---------------------------|----------------------------|
C|-----------------------------|---------------|---------------------------|----------------------------|
G|-----------------------------|---------------|---------------------------|----------------------------|
D|-----------------------------|---------------|---------------------------|----------------------------|
A|-3-3-3--3--3-3-3--3-3-3------|------3-3-3--3-|-2-2-2--2--2-2-2--2-2-2--2-|-5-5-5--5--5-5-5--5-5-5--5--|
   * * *  *  * * *  * * *             * * *  *   * * *  *  * * *  * * *  *   * * *  *  * * *  * * *  *

|--------------------------------------------------------------------------------------------------------|
|                                       PRE-CHORUS 2 (02:06-02:17)                                       |
|--------------------------------------------------------------------------------------------------------|
                                           same as PRE-CHORUS 
|--------------------------------------------------------------------------------------------------------|
|                                         CHORUS 2 (02:17-02:39)                                         |
|--------------------------------------------------------------------------------------------------------|

Guitars 1 and 2 (w/ dist)

   П  П  П V П  П V П  П V П   П V П  П V П  П V П V П V ----|
D|---------------------------|---------------------------|   |
A|---------------------------|---------------------------|   |
F|---------------------------|---------------------------|   |
C|---------------------------|---------------------------|   |
G|---------------------------|---------------------------|   |
D|-5-------------------------|---------------------------|   |
A|-3--3--3-3-3--3-3-3--3-3-3-|-3-3-3--3-3-3--3-3-3-3-3-3-|   |
      *  * * *  * * *  * * *   * * *  * * *  * * * * * *     |
                                                             | x3
   П  П  П V П  П V П  П V П   П V П  П V П  П V П V П V     |
D|---------------------------|---------------------------|   |
A|---------------------------|---------------------------|   |
F|---------------------------|---------------------------|   |
C|---------------------------|---------------------------|   |
G|---------------------------|---------------------------|   |
D|-9-------------------------|-7-------------------------|   |
A|-7---7--7-7-7--7-7-7-7-7-7-|-5---5--5-5-5--5-5-5-5-5-5-|   |
       *  * * *  * * * * * *       *  * * *  * * * * * * ----|

   П  П  П V П  П V П  П V П   П V П  П V П  П V П V П V 
D|---------------------------|---------------------------|
A|---------------------------|---------------------------|
F|---------------------------|---------------------------|
C|---------------------------|---------------------------|
G|---------------------------|---------------------------|
D|-5-------------------------|---------------------------|
A|-3--3--3-3-3--3-3-3--3-3-3-|-3-3-3--3-3-3--3-3-3-3-3-3-|
      *  * * *  * * *  * * *   * * *  * * *  * * * * * *
  
   П   П  П V П  П V П  П V П   П      П     П
D|----------------------------|------------------|
A|----------------------------|------------------|
F|----------------------------|------------------|
C|----------------------------|------------------|
G|----------------------------|-7------6-----4---|
D|-7--------------------------|-5------4-----2---|
A|-5---5--5-5-5--5-5-5--5-5-5-|------------------|
       *  * * *  * * *  * * *  

|--------------------------------------------------------------------------------------------------------|
|                                          BRIDGE (02:39-03:15)                                          |
|--------------------------------------------------------------------------------------------------------|

Guitars 1 and 2 (w/ dist)

   П   П  П  П
D|---------------|
A|---------------|
F|---------------|
C|---------------|
G|---------------|
D|-6~~~------5~~~|
A|-----5--5------|
       *  *
  
   П   П  П  П  П  П  П   П   П  П  П  П  П  П   П   П  П  П  П  П  П   П   П  П  П   П  П
D|----------------------|----------------------|----------------------|---------------------|
A|----------------------|----------------------|----------------------|---------------------|
F|----------------------|----------------------|----------------------|---------------------|
C|----------------------|----------------------|----------------------|---------------------| x4
G|----------------------|----------------------|----------------------|---------------------|
D|----------------------|----------------------|----------------------|-6~~~------5~~~------|
A|-7~~~5--7--5--8--7--5-|-7~~~5--7--5--8--7--5-|-7~~~5--7--5--8--7--5-|-----5--5------5--5--|
       *     *        *       *     *        *       *     *        *       *  *      *  *
   
   П   П  П  П   П  П    П   П  П  П   П V П V
D|---------------------|-----------------------|
A|---------------------|-----------------------|
F|---------------------|-----------------------|
C|---------------------|-----------------------|
G|---------------------|-----------------------|
D|-6~~~------5~~~------|-6~~~------5~~~--------|
A|-----5--5------5--5--|-----5--5------5-5-5-5-|
       *  *      *  *        *  *      * * * *

|--------------------------------------------------------------------------------------------------------|
|                                         CHORUS 3 (03:15-03:37)                                         |
|--------------------------------------------------------------------------------------------------------|

Guitars 1 and 2 (w/ dist)

   П  П  П V П  П V П  П V П   П V П  П V П  П V П V П V ----|
D|---------------------------|---------------------------|   |
A|---------------------------|---------------------------|   |
F|---------------------------|---------------------------|   |
C|---------------------------|---------------------------|   |
G|---------------------------|---------------------------|   |
D|-5-------------------------|---------------------------|   |
A|-3--3--3-3-3--3-3-3--3-3-3-|-3-3-3--3-3-3--3-3-3-3-3-3-|   |
      *  * * *  * * *  * * *   * * *  * * *  * * * * * *     |
                                                             | x3
   П  П  П V П  П V П  П V П   П V П  П V П  П V П V П V     |
D|---------------------------|---------------------------|   |
A|---------------------------|---------------------------|   |
F|---------------------------|---------------------------|   |
C|---------------------------|---------------------------|   |
G|---------------------------|---------------------------|   |
D|-9-------------------------|-7-------------------------|   |
A|-7---7--7-7-7--7-7-7-7-7-7-|-5---5--5-5-5--5-5-5-5-5-5-|   |
       *  * * *  * * * * * *       *  * * *  * * * * * * ----|

   П  П  П V П  П V П  П V П   П V П  П V П  П V П V П V
D|---------------------------|---------------------------|
A|---------------------------|---------------------------|
F|---------------------------|---------------------------|
C|---------------------------|---------------------------|
G|---------------------------|---------------------------|
D|-5-------------------------|---------------------------|
A|-3--3--3-3-3--3-3-3--3-3-3-|-3-3-3--3-3-3--3-3-3-3-3-3-|
      *  * * *  * * *  * * *   * * *  * * *  * * * * * *

    П  П  П V П  П V П  П V П   П  V  П  V  П  V  П
D|----------------------------|----------------------|
A|----------------------------|----------------------|
F|----------------------------|----------------------|
C|----------------------------|----------------------|
G|----------------------------|----------------------|
D|-7--------------------------|-5--4--------4--------|
A|-5---5--5-5-5--5-5-5--5-5-5-|-------7--5-----7--5--|
       *  * * *  * * *  * * *   *  *  *  *  *  *  *

|--------------------------------------------------------------------------------------------------------|
|                                          OUTRO (03:37-04:02)                                           |
|--------------------------------------------------------------------------------------------------------|

Guitars 1 and 2 (w/ dist)

   П   П  П   П   П     П   П   П   П     П   П  П   П   П     П   П  П   П V П V П V
D|--------------------|-----------------|--------------------|------------------------|
A|--------------------|-----------------|--------------------|------------------------|
F|--------------------|-----------------|--------------------|------------------------|
C|--------------------|-----------------|--------------------|------------------------|
G|--------------------|-----------------|--------------------|------------------------|
D|-5---5--5---5---5---|-5---5---5---5---|-9---9--9---9---9---|-7---7--7---------------|
A|-3---3--3---3---3---|-3---3---3---3---|-7---7--7---7---7---|-5---5--5---5-5-5-5-5-5-|
                                                                          * * * * * *

   П   П  П   П   П     П   П   П   П     П   П  П   П   П     П    П
D|--------------------|-----------------|--------------------|-----------|
A|--------------------|-----------------|--------------------|-----------|
F|--------------------|-----------------|--------------------|-----------|
C|--------------------|-----------------|--------------------|-----------|
G|--------------------|-----------------|--------------------|-7----6----|
D|-5---5--5---5---5---|-5---5---5---5---|-7---7--7---7---7---|-5----4----|
A|-3---3--3---3---3---|-3---3---3---3---|-5---5--5---5---5---|-----------|

   П V П  П  П V П  П V П
D|-----------------------------|
A|-----------------------------|
F|-----------------------------|
C|-----------------------------|
G|-----------------------------|
D|-----------------------------|
A|-7-7-7--5--7-7-7--5-5-5------|
   * * *  *  * * *  * * *


Добавлено: 16.02.2016
Другие материалы по этой песне:

Страница создана 16.02.2016
http://primanota.ru/fear-factory/regenerate-chords.htm
Привет, Гость.
Предлагаем пройти революционный курс по гитаре.
Подарок от PrimaNota.Ru, забирай!