PrimaNota.ru - самый крупный в мире бесплатный архив песенных текстов, аккордов, табулатур и нот


Fear Factory - Recharger - таба, видео

Регистрация Запомнить меня
Войти через:  Facebook Google Twitter Vk Yandex Mail.ru

Fear Factory - Recharger - таба, видео

Печатать
Просмотров: 128
Уроки эстрадного вокала в Санкт-Петербурге
-----------------------------------------------------------------------------------------
|                                 FEAR FACTORY - RECHARGER                              |
|                              Album: The Industrialist (2012)                          |
-----------------------------------------------------------------------------------------
           If you have questions or corrections feel free to send me a message:
                        http://profile.ultimate-guitar.com/godspeedy/
                           https://www.facebook.com/Godspeedy14
                           
        Also, check out my Youtube channel: http://www.youtube.com/user/Godspeedy14

                                  Tuning: 7 string ADGCFAD
                                                        
**************************************GUITAR NOTATIONS***********************************
*                                                                                       *
*                               | *   palm mute           |                             *
*                               | s   slide               |                             *
*                               | s\  slide downwards     |                             *
*                               | /s  slide in from below |                             *
*                               | p   pull-off            |                             *
*                               | ~   vibrato             |                             *
*                               | +   pinch harmonics     |                             *
*                               | b   bend                |                             *
*                               | П   downstroke          |                             *
*                               | V   upstroke            |                             *
*                                                                                       *
*****************************************************************************************

-----------------------------------------------------------------------------------------
|                                    INTRO (00:00-00:19)                                |
-----------------------------------------------------------------------------------------

Guitars 1 and 2 (w/ dist)

   П V П V П  П  П  П  П  П   П  П  П  П  П  П  П
D|--------------------------|------------------------|
A|--------------------------|------------------------|
F|--------------------------|------------------------| 
C|--------------------------|------------------------| x8
G|--------------------------|------------------------|
D|---------------4--------4-|-------4-----5-----4-p3-|
A|-6-6-5-5-3--3-----3--3----|-3--3-----3-----3-------|
   * * * * *  *     *  *      *  *     *     *

-----------------------------------------------------------------------------------------
|                                   VERSE (00:19-00:38)                                 |
-----------------------------------------------------------------------------------------
                                      same as INTRO
-----------------------------------------------------------------------------------------
|                                 PRE-CHORUS (00:38-00:47)                              |
-----------------------------------------------------------------------------------------

Guitars 1 and 2 (w/ dist)

   П     П  П     П  П      П V П V П  П  П   П  П
D|------------------------|-------------------------|
A|------------------------|-------------------------|
F|------------------------|-------------------------|
C|------------------------|-------------------------| x3
G|------------------------|-------------------------|
D|-6-s7-----6-s7-----6-s7-|---------------5---------|
A|-4-s5--0--4-s5--0--4-s5-|-4-4-4-4-4--4------4--0--|
         *        *         * * * * *  *  +   *  *

   П     П  П     П  П      П V П V П  П  П  П  П  П
D|------------------------|--------------------------|
A|------------------------|--------------------------|
F|------------------------|--------------------------|
C|------------------------|--------------------------|
G|------------------------|--------------------------|
D|-6-s7-----6-s7-----6-s7-|--------------------------|
A|-4-s5--0--4-s5--0--4-s5-|-4-4-4-4-4--4--4--4--4--4-|
         *        *         * * * * *  *  *  *  *

-----------------------------------------------------------------------------------------
|                                   VERSE 2 (00:47-00:57)                               |
-----------------------------------------------------------------------------------------

Guitars 1 and 2 (w/ dist)

   П V П V П  П  П  П  П  П   П  П  П  П  П  П  П
D|--------------------------|------------------------|
A|--------------------------|------------------------|
F|--------------------------|------------------------| 
C|--------------------------|------------------------| x4
G|--------------------------|------------------------|
D|---------------4--------4-|-------4-----5-----4-p3-|
A|-6-6-5-5-3--3-----3--3----|-3--3-----3-----3-------|
   * * * * *  *     *  *      *  *     *     *

-----------------------------------------------------------------------------------------
|                                    CHORUS (00:57-01:37)                               |
-----------------------------------------------------------------------------------------

Guitars 1 and 2 (w/ dist)

   П   П V П V П V П V П V П V   П   П  П   П  П
D|-----------------------------|-------------------|
A|-----------------------------|-------------------|
F|-----------------------------|-------------------|
C|-----------------------------|-------------------|
G|-----------------------------|-------------------|
D|-9---------------------------|-7---7--7---7--7---|
A|-7---7-7-7-7-7-7-7-7-7-7-7-7-|-5---5--5---5--5---|
       * * * * * * * * * * * *       *      *
   П   П V П V П V П V П V П V   П   П  П   П  П
D|-----------------------------|-------------------|
A|-----------------------------|-------------------|
F|-----------------------------|-------------------|
C|-----------------------------|-------------------|
G|-----------------------------|-7---7--7---7--7---|
D|-7---------------------------|-5---5--5---5--4---|
A|-4---4-4-4-4-4-4-4-4-4-4-4-4-|-------------------|
       * * * * * * * * * * * *       *      *
   П   П V П V П V П V П V П V   П   П  П   П  П
D|-----------------------------|-------------------|
A|-----------------------------|-------------------|
F|-----------------------------|-------------------|
C|-----------------------------|-------------------|
G|-----------------------------|-------------------|
D|-9---------------------------|-7---7--7---7--7---|
A|-7---7-7-7-7-7-7-7-7-7-7-7-7-|-5---5--5---5--5---|
       * * * * * * * * * * * *       *      *
   П   П V П V П V П V П V П V   П   П V П V П V П V П V П V
D|-----------------------------|-----------------------------|
A|-----------------------------|-----------------------------|
F|-----------------------------|-----------------------------|
C|-----------------------------|-----------------------------|
G|-----------------------------|-----------------------------|
D|-7---------------------------|-7---------------------------|
A|-4---4-4-4-4-4-4-4-4-4-4-4-4-|-4---4-4-4-4-4-4-4-4-4-4-4-4-|
       * * * * * * * * * * * *       * * * * * * * * * * * *
   П   П V П V П V П V П V П V   П   П  П   П  П
D|-----------------------------|-------------------|
A|-----------------------------|-------------------|
F|-----------------------------|-------------------|
C|-----------------------------|-------------------|
G|-----------------------------|-------------------|
D|-9---------------------------|-7---7--7---7--7---|
A|-7---7-7-7-7-7-7-7-7-7-7-7-7-|-5---5--5---5--5---|
       * * * * * * * * * * * *       *      *
   П   П V П V П V П V П V П V   П   П  П   П  П
D|-----------------------------|-------------------|
A|-----------------------------|-------------------|
F|-----------------------------|-------------------|
C|-----------------------------|-------------------|
G|-----------------------------|-7---7--7---7--7---|
D|-7---------------------------|-5---5--5---5--4---|
A|-4---4-4-4-4-4-4-4-4-4-4-4-4-|-------------------|
       * * * * * * * * * * * *       *      *
   П   П V П V П V П V П V П V   П   П  П   П  П
D|-----------------------------|-------------------|
A|-----------------------------|-------------------|
F|-----------------------------|-------------------|
C|-----------------------------|-------------------|
G|-----------------------------|-------------------|
D|-9---------------------------|-7---7--7---7--7---|
A|-7---7-7-7-7-7-7-7-7-7-7-7-7-|-5---5--5---5--5---|
       * * * * * * * * * * * *       *      *
   П   П V П V П V П V П V П V   П  
D|-----------------------------|-------|
A|-----------------------------|-------|
F|-----------------------------|-------|
C|-----------------------------|-------|
G|-----------------------------|-------|
D|-7---------------------------|-7-----|
A|-4---4-4-4-4-4-4-4-4-4-4-4-4-|-4-----|
       * * * * * * * * * * * *     
                                                    ---------------------------------|
D|---------------|---------------|---------------|---------------|                   |
A|---------------|---------------|---------------|---------------|                   |
F|---------------|---------------|---------------|---------------|                   |
C|---------------|---------------|---------------|-7----7--------|                   |
G|---------------|---------------|---------------|-7----7----7---|                   |
D|-9----9----9---|-7----7----7---|-7----7----7---|-5----5----4---|                   |
A|-7----7----7---|-5----5----5---|-4----4----4---|---------------|                   | 
                                                                                     | x2
D|---------------|---------------|----------------------|----------------------|     |
A|---------------|---------------|----------------------|----------------------|     |
F|---------------|---------------|----------------------|----------------------|     |
C|---------------|---------------|----------------------|----------------------|     |
G|---------------|---------------|----------------------|----------------------|     |
D|-9----9----9---|-7----7----7---|-7---7--7--7--7--7--7-|-7---7--7--7--7--7--7-|     |
A|-7----7----7---|-5----5----5---|-4---4--4--4--4--4--4-|-4---4--4--4--4--4--4-|     |
                                       *  *  *  *  *  *       *  *  *  *  *  * ------|
D|---------------|---------------|
A|---------------|---------------|
F|---------------|---------------|
C|---------------|---------------|
G|---------------|---------------|
D|-7----7----7---|-7----7----7---|
A|-4----4----4---|-4----4----4---|
        *    *          *    *

-----------------------------------------------------------------------------------------
|                                    BRIDGE (01:37-02:34)                               |
-----------------------------------------------------------------------------------------

Guitars 1 and 2 (w/ dist)

   П V П      П  П V П V П           П  П V П V П      П V П V     
D|------------------------------|------------------------------|
A|------------------------------|------------------------------|
F|------------------------------|------------------------------|
C|------------------------------|------------------------------|
G|------------------------------|------------------------------|
D|------------------------------|------------------------------|\
A|-5-5-5------5--8-8-7-7-5------|----5--8-8-7-7-5------4-4-4-4-| \
   * * *      *  * * * * *           *  * * * * *      * * * *    x2
D|------------------------------|------------------------------| /
A|------------------------------|------------------------------|/
F|------------------------------|------------------------------|
C|------------------------------|------------------------------|
G|------------------------------|------------------------------|
D|------------------------------|------------------------------|
A|-5-5-5------5--8-8-7-7-5------|----5--8-8-7-7-5--------------|
   * * *      *  * * * * *           *  * * * * *
   П V П      П  П V П V П           П  П V П V П      П V П V 
D|------------------------------|------------------------------|
A|------------------------------|------------------------------|
F|------------------------------|------------------------------|
C|------------------------------|------------------------------| x4
G|------------------------------|------------------------------|
D|------------------------------|------------------------------|
A|-5-5-5------5--8-8-7-7-5------|----5--8-8-7-7-5------4-4-4-4-|
   * * *      *  * * * * *           *  * * * * *      * * * *  
   П V П      П  П V П V П           П V П V П V П V П V П V П
D|------------------------------|------------------------------|
A|------------------------------|------------------------------|
F|------------------------------|------------------------------|
C|------------------------------|------------------------------| x7
G|------------------------------|------------------------------|
D|------------------------------|------------------------------|
A|-5-5-5------5--8-8-7-7-5------|----5-8-7-5-5-8-8-8-8-4-4-4-4-|
   * * *      *  * * * * *           * * * * * * * * * * * * * 
D|------------------------------|------------------------------|
A|------------------------------|------------------------------|
F|------------------------------|------------------------------|
C|------------------------------|------------------------------|
G|------------------------------|------------------------------|
D|------------------------------|------------------------------|
A|-5-5-5------5--8-8-7-7-5------|----5-8-7-5-5-5s12s2----------|
   * * *      *  * * * * *           * * * * * slide up and down

   П    П  П V П V П       П  П V П V П   П    П
D|---------------------|----------------------------|
A|---------------------|----------------------------|
F|---------------------|----------------------------|
C|---------------------|----------------------------| x3
G|---------------------|----------------------------|
D|---------------------|----------------------------|
A|-5~~~~0--7-7-7-7-4~~~|~~~0--5-5-5-5-5-/s8---s4----|
        *  * * * *         *  * * * * *        
D|---------------------|----------------------|
A|---------------------|----------------------|
F|---------------------|----------------------|
C|---------------------|----------------------|
G|---------------------|----------------------|
D|---------------------|--------------10--6---|
A|-5~~~~0--7-7-7-7-4~~~|~~~0--5-5-5-5-8---4---|
        *  * * * *         *  * * * * *   *
D|---------------------|----------------------|
A|---------------------|----------------------|
F|---------------------|----------------------|
C|---------------------|----------------------| x4
G|---------------------|----------------------|
D|---------------------|--------------10--6---|
A|-5b---0--7-7-7-7-4~~~|~~~0--5-5-5-5-8---4---|
        *  * * * *         *  * * * * *   *

-----------------------------------------------------------------------------------------
|                                   VERSE 3 (02:34-03:03)                               |
-----------------------------------------------------------------------------------------

Guitars 1 and 2 (w/ dist)

   П V П V П  П  П  П  П  П   П  П  П  П  П  П  П
D|--------------------------|------------------------|
A|--------------------------|------------------------|
F|--------------------------|------------------------| 
C|--------------------------|------------------------| x12
G|--------------------------|------------------------|
D|---------------4--------4-|-------4-----5-----4-p3-|
A|-6-6-5-5-3--3-----3--3----|-3--3-----3-----3-------|
   * * * * *  *     *  *      *  *     *     *
                                     
-----------------------------------------------------------------------------------------
|                                   CHORUS 2 (03:03-03:41)                              |
-----------------------------------------------------------------------------------------
                                      
Guitars 1 and 2 (w/ dist)

D|-----------------------------|-------------------|
A|-----------------------------|-------------------|
F|-----------------------------|-------------------|
C|-----------------------------|-------------------|
G|-----------------------------|-------------------|
D|-9---------------------------|-7---7--7---7--7---|
A|-7---7-7-7-7-7-7-7-7-7-7-7-7-|-5---5--5---5--5---|
       * * * * * * * * * * * *       *      *
D|-----------------------------|-------------------|
A|-----------------------------|-------------------|
F|-----------------------------|-------------------|
C|-----------------------------|-------------------|
G|-----------------------------|-7---7--7---7--7---|
D|-7---------------------------|-5---5--5---5--4---|
A|-4---4-4-4-4-4-4-4-4-4-4-4-4-|-------------------|
       * * * * * * * * * * * *       *      *
D|-----------------------------|-------------------|
A|-----------------------------|-------------------|
F|-----------------------------|-------------------|
C|-----------------------------|-------------------|
G|-----------------------------|-------------------|
D|-9---------------------------|-7---7--7---7--7---|
A|-7---7-7-7-7-7-7-7-7-7-7-7-7-|-5---5--5---5--5---|
       * * * * * * * * * * * *       *      *
D|-----------------------------|-----------------------------|
A|-----------------------------|-----------------------------|
F|-----------------------------|-----------------------------|
C|-----------------------------|-----------------------------|
G|-----------------------------|-----------------------------|
D|-7---------------------------|-7---------------------------|
A|-4---4-4-4-4-4-4-4-4-4-4-4-4-|-4---4-4-4-4-4-4-4-4-4-4-4-4-|
       * * * * * * * * * * * *       * * * * * * * * * * * *
D|-----------------------------|-------------------|
A|-----------------------------|-------------------|
F|-----------------------------|-------------------|
C|-----------------------------|-------------------|
G|-----------------------------|-------------------|
D|-9---------------------------|-7---7--7---7--7---|
A|-7---7-7-7-7-7-7-7-7-7-7-7-7-|-5---5--5---5--5---|
       * * * * * * * * * * * *       *      *
D|-----------------------------|-------------------|
A|-----------------------------|-------------------|
F|-----------------------------|-------------------|
C|-----------------------------|-------------------|
G|-----------------------------|-7---7--7---7--7---|
D|-7---------------------------|-5---5--5---5--4---|
A|-4---4-4-4-4-4-4-4-4-4-4-4-4-|-------------------|
       * * * * * * * * * * * *       *      *
D|-----------------------------|-------------------|
A|-----------------------------|-------------------|
F|-----------------------------|-------------------|
C|-----------------------------|-------------------|
G|-----------------------------|-------------------|
D|-9---------------------------|-7---7--7---7--7---|
A|-7---7-7-7-7-7-7-7-7-7-7-7-7-|-5---5--5---5--5---|
       * * * * * * * * * * * *       *      *
D|-----------------------------|------|
A|-----------------------------|------|
F|-----------------------------|------|
C|-----------------------------|------|
G|-----------------------------|------|
D|-7---------------------------|------|
A|-4---4-4-4-4-4-4-4-4-4-4-4-4-|------|
       * * * * * * * * * * * *     
                                                    ---------------------------------|
D|---------------|---------------|---------------|---------------|                   |
A|---------------|---------------|---------------|---------------|                   |
F|---------------|---------------|---------------|---------------|                   |
C|---------------|---------------|---------------|-7----7--------|                   |
G|---------------|---------------|---------------|-7----7----7---|                   |
D|-9----9----9---|-7----7----7---|-7----7----7---|-5----5----4---|                   |
A|-7----7----7---|-5----5----5---|-4----4----4---|---------------|                   | 
                                                                                     | x2
D|---------------|---------------|----------------------|----------------------|     |
A|---------------|---------------|----------------------|----------------------|     |
F|---------------|---------------|----------------------|----------------------|     |
C|---------------|---------------|----------------------|----------------------|     |
G|---------------|---------------|----------------------|----------------------|     |
D|-9----9----9---|-7----7----7---|-7---7--7--7--7--7--7-|-7---7--7--7--7--7--7-|     |
A|-7----7----7---|-5----5----5---|-4---4--4--4--4--4--4-|-4---4--4--4--4--4--4-|     |
                                       *  *  *  *  *  *       *  *  *  *  *  * ------|

-----------------------------------------------------------------------------------------
|                                     OUTRO (03:41-04:09)                               |
-----------------------------------------------------------------------------------------

Guitars 1 and 2 (w/ dist)

   П   П  П   П  П     П   П  П   П  П     П   П  П   П  П     П   П  П   П  П
D|-------------------|-------------------|-------------------|-------------------|
A|-------------------|-------------------|-------------------|-------------------|
F|-------------------|-------------------|-------------------|-------------------|
C|-------------------|-------------------|-------------------|-------------------|
G|-------------------|-------------------|-------------------|-7---7--7---7--7---|
D|-9---9--9---9--9---|-7---7--7---7--7---|-7---7--7---7--7---|-5---5--5---5--4---|
A|-7---7--7---7--7---|-5---5--5---5--5---|-4---4--4---4--4---|-------------------|
       *      *            *      *            *      *            *      *
   П   П  П   П  П     П   П  П   П  П     П   П  П  П V П V П  П    П   П  П  П V П V П  П
D|-------------------|-------------------|-------------------------|-------------------------|
A|-------------------|-------------------|-------------------------|-------------------------|
F|-------------------|-------------------|-------------------------|-------------------------|
C|-------------------|-------------------|-------------------------|-------------------------|
G|-------------------|-------------------|-------------------------|-------------------------|
D|-9---9--9---9--9---|-7---7--7---7--7---|-------------------------|-------------------------|
A|-7---7--7---7--7---|-5---5--5---5--5---|-4---4--4--4-5-4-4-4--4--|-4---4--4--4-5-4-4-4--4--|
       *      *            *      *            *  *  * * * * *  *        *  *  * * * * *  *
D|-------------------------|
A|-------------------------|
F|-------------------------|
C|-------------------------|
G|-------------------------|
D|-------------------------|
A|-4---4--4--4-5-4-4-4--4--|
       *  *  * * * * *  *



Добавлено: 07.10.2015
Другие материалы по этой песне:

Страница создана 07.10.2015
http://primanota.ru/fear-factory/recharger-chords.htm
Привет, Гость.
Предлагаем пройти революционный курс по гитаре.
Подарок от PrimaNota.Ru, забирай!