PrimaNota.ru - самый крупный в мире бесплатный архив песенных текстов, аккордов, табулатур и нот


Fear Factory - Expiration Date - таба, видео

Регистрация Запомнить меня
Войти через:  Facebook Google Twitter Vk Yandex Mail.ru

Fear Factory - Expiration Date - таба, видео

Печатать
Просмотров: 75
Авторы: Burton C. Bell, Dino Cazares

|--------------------------------------------------------------------------------------------------------|
|                                      FEAR FACTORY - EXPIRATION DATE                                    |
|                                          Album: Genexus (2015)                                         |
|                                            Tab by Godspeedy                                            |
|--------------------------------------------------------------------------------------------------------|

                   If you have questions or corrections feel free to send me a message:
                                    https://www.facebook.com/Godspeedy14
                     
                 Also check out my Youtube channel: http://www.youtube.com/user/Godspeedy14

                        *************************************************************
                        * NOTE: If you need a playthrough, check out my cover here: *
                        *       https://www.youtube.com/watch?v=Ev3Nt0O9GLY         *
                        *************************************************************

                                        Tuning: 7 strings ADGCFAD 
                                                    
*********************************************GUITAR NOTATIONS*********************************************
*                                                                                                        *
*                                      | ..  let ring            |                                       *
*                                      | ''  natural harmonics   |                                       *
*                                                                                                        *
**********************************************************************************************************

                     ************Play all riffs with down picking only************

|--------------------------------------------------------------------------------------------------------|
|                                          INTRO (00:00-00:53)                                           |
|--------------------------------------------------------------------------------------------------------|

Guitar 1 (w/ dist and delay) - fade in

D|--------------------------|
A|--------------------------|
F|-------------'5'----------| x16
C|----'5''4''5'---'4''5''4'-|
G|-'5'----------------------|
D|--------------------------|
A|--------------------------|

Guitars 2 and 3 (w/ dist)

8 bars empty, then:

D|--------|--------|-------|--------|-------|--------|--------|-------------|
A|--------|--------|-------|--------|-------|--------|--------|-------------|
F|--------|--------|-------|--------|-------|--------|--------|-------------|
C|--------|--------|-------|----7---|-5-----|----7---|-12-----|-11---9---7--|
G|-5------|--/s9---|-2-----|----7---|-5-----|----7---|-12-----|-11---9---7--|
D|-5------|--/s9---|-2-----|----5---|-3-----|----5---|-10-----|-9----7---5--|
A|-3------|--/s7---|-0-----|--------|----------------|--------|-------------|

|--------------------------------------------------------------------------------------------------------|
|                                          VERSE (00:53-01:44)                                           |
|--------------------------------------------------------------------------------------------------------|

I. Guitars 1 and 2 (w/ dist) - fade out

   ........................
D|--------|--------|-------|
A|--------|--------|-------|
F|--------|--------|-------|
C|--------|--------|-------|
G|-5------|--------|-------|
D|-5------|--------|-------|
A|-3------|--------|-------|

after that, 5 bars w/out guitars

II. Guitars 1 and 2 (w/ dist)

D|-----------------------|-----------------------|-----------------------|-----------------------|
A|-----------------------|-----------------------|-----------------------|-----------------------|
F|-----------------------|-----------------------|-----------------------|-----------------------|
C|-----------------------|-----------------------|-----------------------|-----------------7-----|
G|-5--5-------5----5-----|-5--5-------5--/s9-----|-2--2-------2----2-----|-2--2-------2----7-----|
D|-5--5-------5----5-----|-5--5-------5--/s9-----|-2--2-------2----2-----|-2--2-------2----5-----|
A|-3--3-------3----3-----|-3--3-------3--/s7-----|-0--0-------0----0-----|-0--0-------0----------|

D|-----------------------|-----------------------|-----------------------|-----------------------|
A|-----------------------|-----------------------|-----------------------|-----------------------|
F|-----------------------|-----------------------|-----------------------|-----------------------|
C|-5--5-------5----5-----|-5--5-------5----9-----|-12-12------12---12----|-11-11------11---12----|
G|-5--5-------5----5-----|-5--5-------5----9-----|-12-12------12---12----|-11-11------11---12----|
D|-3--3-------3----3-----|-3--3-------3----7-----|-10-10------10---10----|-9--9-------9----10----|
A|-----------------------|-----------------------|-----------------------|-----------------------|

   Guitar 3 (w/ dist and delay) - fade in

6 bars empty, then:

D|--------------------------|
A|--------------------------|
F|-------------'5'----------| x2
C|----'5''4''5'---'4''5''4'-|
G|-'5'----------------------|
D|--------------------------|
A|--------------------------|

|--------------------------------------------------------------------------------------------------------|
|                                          CHORUS (01:44-02:34)                                          |
|--------------------------------------------------------------------------------------------------------|

Guitar 1 (w/ dist and delay)

D|--------------------------|
A|--------------------------|
F|-------------'5'----------| x16
C|----'5''4''5'---'4''5''4'-|
G|-'5'----------------------|
D|--------------------------|
A|--------------------------|

Guitars 2 and 3 (w/ dist)

D|--------|--------|-------|--------|-------|--------|--------|-------------|
A|--------|--------|-------|--------|-------|--------|--------|-------------|
F|--------|--------|-------|--------|-------|--------|--------|-------------| x2
C|--------|--------|-------|----7---|-5-----|----7---|-12-----|-11---9---7--|
G|-5------|--/s9---|-2-----|----7---|-5-----|----7---|-12-----|-11---9---7--|
D|-5------|--/s9---|-2-----|----5---|-3-----|----5---|-10-----|-9----7---5--|
A|-3------|--/s7---|-0-----|--------|----------------|--------|-------------|

|--------------------------------------------------------------------------------------------------------|
|                                         VERSE 2 (02:34-03:25)                                          |
|--------------------------------------------------------------------------------------------------------|

8 bars empty, then:

Guitars 1 and 2 (w/ dist)

D|-----------------------|-----------------------|-----------------------|-----------------------|
A|-----------------------|-----------------------|-----------------------|-----------------------|
F|-----------------------|-----------------------|-----------------------|-----------------------|
C|-----------------------|-----------------------|-----------------------|-----------------7-----|
G|-5--5-------5----5-----|-5--5-------5--/s9-----|-2--2-------2----2-----|-2--2-------2----7-----|
D|-5--5-------5----5-----|-5--5-------5--/s9-----|-2--2-------2----2-----|-2--2-------2----5-----|
A|-3--3-------3----3-----|-3--3-------3--/s7-----|-0--0-------0----0-----|-0--0-------0----------|

D|-----------------------|-----------------------|-----------------------|-----------------------|
A|-----------------------|-----------------------|-----------------------|-----------------------|
F|-----------------------|-----------------------|-----------------------|-----------------------|
C|-5--5-------5----5-----|-5--5-------5----9-----|-12-12------12---12----|-11-11------11---12----|
G|-5--5-------5----5-----|-5--5-------5----9-----|-12-12------12---12----|-11-11------11---12----|
D|-3--3-------3----3-----|-3--3-------3----7-----|-10-10------10---10----|-9--9-------9----10----|
A|-----------------------|-----------------------|-----------------------|-----------------------|

|--------------------------------------------------------------------------------------------------------|
|                                         CHORUS 2 (03:25-04:44)                                         |
|--------------------------------------------------------------------------------------------------------|

1 bar empty, then:

Guitar 1 (w/ dist and delay)

D|--------------------------|
A|--------------------------|
F|-------------'5'----------| x24
C|----'5''4''5'---'4''5''4'-|
G|-'5'----------------------|
D|--------------------------|
A|--------------------------|

Guitars 2 and 3 (w/ dist)

D|--------|--------|-------|--------|-------|--------|--------|-------------|
A|--------|--------|-------|--------|-------|--------|--------|-------------|
F|--------|--------|-------|--------|-------|--------|--------|-------------| x3
C|--------|--------|-------|----7---|-5-----|----7---|-12-----|-11---9---7--|
G|-5------|--/s9---|-2-----|----7---|-5-----|----7---|-12-----|-11---9---7--|
D|-5------|--/s9---|-2-----|----5---|-3-----|----5---|-10-----|-9----7---5--|
A|-3------|--/s7---|-0-----|--------|----------------|--------|-------------|

|--------------------------------------------------------------------------------------------------------|
|                                          OUTRO (04:44-08:48)                                           |
|--------------------------------------------------------------------------------------------------------|

Guitar 1 (w/ dist)

D|--------------------------|
A|--------------------------|
F|-------------'5'----------| x4
C|----'5''4''5'---'4''5''4'-|
G|-'5'----------------------|
D|--------------------------|
A|--------------------------|


Добавлено: 16.02.2016
Вам также может быть интересно:
Другие материалы по этой песне:

Страница создана 16.02.2016
http://primanota.ru/fear-factory/expiration-date-chords.htm
Привет, Гость.
Предлагаем пройти революционный курс по гитаре.
Подарок от PrimaNota.Ru, забирай!