PrimaNota.ru - самый крупный в мире бесплатный архив песенных текстов, аккордов, табулатур и нот


Fear Factory - Soul Hacker - таба, видео

Регистрация Запомнить меня
Войти через:  Facebook Google Twitter Vk Yandex Mail.ru

Fear Factory - Soul Hacker - таба, видео

Печатать
Просмотров: 66
Авторы: Burton C. Bell, Dino Cazares

|--------------------------------------------------------------------------------------------------------|
|                                        FEAR FACTORY - SOUL HACKER                                      |
|                                           Album: GENEXUS (2015)                                        |
|--------------------------------------------------------------------------------------------------------|

                   If you have questions or corrections feel free to send me a message:
                                http://profile.ultimate-guitar.com/godspeedy/
                                    https://www.facebook.com/Godspeedy14
                     
                 Also check out my Youtube channel: http://www.youtube.com/user/Godspeedy14

                        *************************************************************
                        * NOTE: If you need a playthrough, check out my cover here: *
                        *       https://www.youtube.com/watch?v=C8r1RfkUP2o         *
                        *************************************************************

                                       Tuning: 8 strings F#BEADGBE 
                                                    
*********************************************GUITAR NOTATIONS*********************************************
*                                                                                                        *
*                                      | *   palm mute           |                                       *
*                                      | s   slide               |                                       *
*                                      | /s  slide in from below |                                       *
*                                      | h   hammer-on           |                                       *
*                                      | p   pull-off            |                                       *
*                                      | ~   vibrato             |                                       *
*                                      | x   Mute note           |                                       *
*                                      | b   bend                |                                       *
*                                      | r   release             |                                       *
*                                      | br  bend release        |                                       *
*                                      | ..  let ring            |                                       *
*                                                                                                        *
**********************************************************************************************************

|--------------------------------------------------------------------------------------------------------|
|                                          INTRO (00:00-00:18)                                           |
|--------------------------------------------------------------------------------------------------------|

Guitars 1 and 2 (w/ dist)

 E|-----------------------|-----------------------|------------------------|-------------------------|
 B|-----------------------|-----------------------|------------------------|-------------------------|
 G|-----------------------|-----------------------|------------------------|-------------------------|
 D|-----------------------|-----------------------|------------------------|-------------------------|
 A|-----------------------|-----------------------|------------------------|-------------------------|
 E|-----------------------|-----------------------|------------------------|-------------------------|
 B|-----------------------|------------------8----|------------------11----|------------5-8-8--5-7-7-|
F#|-0---1p0--0-0--0--1--0-|--0--1p0--0-0--0-----0-|--0--1p0--0-0--0------0-|--0--1p0--0--------------|
             *                       *                       *                        *
 E|-----------------------|-----------------------|------------------------|-------------------------|
 B|-----------------------|-----------------------|------------------------|-------------------------|
 G|-----------------------|-----------------------|------------------------|-------------------------|
 D|-----------------------|-----------------------|------------------------|-------------------------|
 A|-----------------------|-----------------------|------------------------|-------------------------|
 E|-----------------------|-----------------------|------------------------|-------------------------|
 B|-----------------------|------------------8----|------------------11----|-------------------------|
F#|-0---1p0--0-0--0--1--0-|--0--1p0--0-0--0-----0-|--0--1p0--0-0--0------0-|--0--1p0--0-2-2-2--2-2-2-|
             *                       *                       *                        * * * *  * * *
 E|--------------|
 B|--------------|
 G|--------------|
 D|--------------|
 A|--------------|
 E|--------------|
 B|--------------|
F#|-2-2-2--2-2-2-|
    * * *  * * *

|--------------------------------------------------------------------------------------------------------|
|                                          VERSE (00:18-00:33)                                           |
|--------------------------------------------------------------------------------------------------------|

Guitars 1 and 2 (w/ dist)

 E|------------------------|------------------------|------------------------|--------------------------|
 B|------------------------|------------------------|------------------------|--------------------------|
 G|------------------------|------------------------|------------------------|--------------------------|
 D|------------------------|------------------------|------------------------|--------------------------|
 A|------------------------|------------------------|------------------------|--------------------------|
 E|------------------------|------------------------|------------------------|--------------------------|
 B|------------------------|------------------------|------------------------|--------------------------|
F#|-0----0-0--0-0--0--1--0-|---0--0-0--0-0--0--4--0-|---0--0-0--0-0--0--1--0-|---0--0-0--0-2-5-5--2-4-4-|
    *    * *  * *  *  *  *     *  * *  * *  *  *  *     *  * *  * *  *  *  *     *  * *  * * * *  * * *

 E|------------------------|------------------------|------------------------|--------------------------|
 B|------------------------|------------------------|------------------------|--------------------------|
 G|------------------------|------------------------|------------------------|--------------------------|
 D|------------------------|------------------------|------------------------|--------------------------|
 A|------------------------|------------------------|------------------------|--------------------------|
 E|------------------------|------------------------|------------------------|--------------------------|
 B|------------------------|------------------------|------------------------|--------------------------|
F#|-0----0-0--0-0--0--1--0-|---0--0-0--0-0--0--4--0-|---0--0-0--0-0--0--1--0-|---0--0-0--0-2-5-5--2-4-4-|
    *    * *  * *  *  *  *     *  * *  * *  *  *  *     *  * *  * *  *  *  *     *  * *  * 
                                     
|--------------------------------------------------------------------------------------------------------|
|                                        PRE-CHORUS (00:33-00:49)                                        |
|--------------------------------------------------------------------------------------------------------|

Guitars 1 and 2 (w/ dist)

 E|-------------------------|--------------------------|------------------------|----------------------|
 B|-------------------------|--------------------------|------------------------|----------------------|
 G|-------------------------|--------------------------|------------------------|----------------------|
 D|-------------------------|--------------------------|------------------------|----------------------|
 A|-------------------------|--------------------------|------------------------|----------------------|
 E|-9--7--9--------9-----10-|--10--10--------12-----12-|--12--12--------7-----7-|--7--7----------------|
 B|-7--5--7--------7-----8--|--8---8---------10-----9--|--9---9---------5-----4-|--4--4----------------|
F#|----------0--0-----0-----|----------0--0------0-----|----------0--0-----0----|--------0--3--5--3--2-|
             *  *     *                *  *      *                *  *     *             *
 E|-------------------------|--------------------------|------------------------|----------------------|
 B|-------------------------|--------------------------|------------------------|----------------------|
 G|-------------------------|--------------------------|------------------------|----------------------|
 D|-------------------------|--------------------------|------------------------|----------------------|
 A|-------------------------|--------------------------|------------------------|----------------------|
 E|-9--7--9--------9-----10-|--10--10--------12-----12-|--12--12--------7-----7-|----------------------|
 B|-7--5--7--------7-----8--|--8---8---------10-----9--|--9---9---------5-----4-|----------------------|
F#|----------0--0-----0-----|----------0--0------0-----|----------0--0-----0----|----------------------|
             *  *     *                *  *      *                *  *     *    

|--------------------------------------------------------------------------------------------------------|
|                                          CHORUS (00:49-01:05)                                          |
|--------------------------------------------------------------------------------------------------------|
                                              same as INTRO
|--------------------------------------------------------------------------------------------------------|
|                                         VERSE 2 (01:05-01:20)                                          |
|--------------------------------------------------------------------------------------------------------|
                                              same as VERSE
|--------------------------------------------------------------------------------------------------------|
|                                       PRE-CHORUS 2 (01:20-01:36)                                       |
|--------------------------------------------------------------------------------------------------------|

Guitars 1 and 2 (w/ dist)

 E|-------------------------|--------------------------|------------------------|----------------------|
 B|-------------------------|--------------------------|------------------------|----------------------|
 G|-------------------------|--------------------------|------------------------|----------------------|
 D|-------------------------|--------------------------|------------------------|----------------------|
 A|-------------------------|--------------------------|------------------------|----------------------|
 E|-9--7--9--------9-----10-|--10--10--------12-----12-|--12--12--------7-----7-|--7--7----------------|
 B|-7--5--7--------7-----8--|--8---8---------10-----9--|--9---9---------5-----4-|--4--4----------------|
F#|----------0--0-----0-----|----------0--0------0-----|----------0--0-----0----|--------0--3--5--3--2-|
             *  *     *                *  *      *                *  *     *             *
 E|-------------------------|--------------------------|------------------------|----------------------|
 B|-------------------------|--------------------------|------------------------|----------------------|
 G|-------------------------|--------------------------|------------------------|----------------------|
 D|-------------------------|--------------------------|------------------------|----------------------|
 A|-------------------------|--------------------------|------------------------|----------------------|
 E|-9--7--9--------9-----10-|--10--10--------12-----12-|--12--12--------7-----7-|--7--7--7-------------|
 B|-7--5--7--------7-----8--|--8---8---------10-----9--|--9---9---------5-----4-|--4--4--4-------------|
F#|----------0--0-----0-----|----------0--0------0-----|----------0--0-----0----|-----------3--5--3--2-|
             *  *     *                *  *      *                *  *     *    

|--------------------------------------------------------------------------------------------------------|
|                                         CHORUS 2 (01:36-01:51)                                         |
|--------------------------------------------------------------------------------------------------------|

Guitars 1 and 2 (w/ dist)

 E|-----------------------|-----------------------|------------------------|-------------------------|
 B|-----------------------|-----------------------|------------------------|-------------------------|
 G|-----------------------|-----------------------|------------------------|-------------------------|
 D|-----------------------|-----------------------|------------------------|-------------------------| x2
 A|-----------------------|-----------------------|------------------------|-------------------------|
 E|-----------------------|-----------------------|------------------------|-------------------------|
 B|-----------------------|------------------8----|------------------11----|------------5-8-8--5-7-7-|
F#|-0---1p0--0-0--0--1--0-|--0--1p0--0-0--0-----0-|--0--1p0--0-0--0------0-|--0--1p0--0--------------|
             *                       *                       *                        *

|--------------------------------------------------------------------------------------------------------|
|                                          BRIDGE (01:51-02:08)                                          |
|--------------------------------------------------------------------------------------------------------|

Guitars 1 and 2 (w/ dist)

 E|----------------------------|
 B|----------------------------|
 G|----------------------------|
 D|----------------------------|
 A|----------------------------|
 E|----------------------------|
 B|-5-8-8--5-7-7--5-8-8--5-7-7-|
F#|----------------------------|

 E|-----------------------|--------------------|-----------------------|-------------------|
 B|-----------------------|--------------------|-----------------------|-------------------|
 G|-----------------------|--------------------|-----------------------|-------------------|
 D|-----------------------|--------------------|-----------------------|-------------------|
 A|-----------------------|--------------------|-----------------------|-------------------|
 E|-----------------------|--------------------|-----------------------|-------------------|
 B|-3---3--3-3-5--3--5--7-|--7--7--7---7--7--7-|-3---3--3-3-5--3--5--7-|--7--7--7---7------|
F#|-1---1--1-1-3--1--3--5-|--5--5--4---4--4--5-|-1---1--1-1-3--1--3--5-|--5--5--4---4--3b--|
           * *                                          * *       
 E|-----------------------|--------------------|-----------------------|---------------x-----|
 B|-----------------------|--------------------|-----------------------|----------------x----|
 G|-----------------------|--------------------|-----------------------|-----------------x---|
 D|-----------------------|--------------------|-----------------------|------------------x--|
 A|-----------------------|--------------------|-----------------------|-------------------x-|
 E|-----------------------|--------------------|-----------------------|---------------------|
 B|-3---3--3-3-5--3--5--7-|--7--7--7---7--7--7-|-3---3--3-3-5--3--5--7-|--7--7--7---7--------|
F#|-1---1--1-1-3--1--3--5-|--5--5--4---4--4--5-|-1---1--1-1-3--1--3--5-|--5--5--4---4--------|
           * *                                          * * 

|--------------------------------------------------------------------------------------------------------|
|                                           SOLO (02:08-02:23)                                           |
|--------------------------------------------------------------------------------------------------------|

Guitars 1 and 2 (w/ dist) - Rhythm for SOLO

 E|-----------------------|--------------------|-----------------------|-------------------|
 B|-----------------------|--------------------|-----------------------|-------------------|
 G|-----------------------|--------------------|-----------------------|-------------------|
 D|-----------------------|--------------------|-----------------------|-------------------|
 A|-----------------------|--------------------|-----------------------|-------------------|
 E|-----------------------|--------------------|-----------------------|-------------------|
 B|-3---3--3-3-5--3--5--7-|--7--7--7---7--7--7-|-3---3--3-3-5--3--5--7-|--7--7--7---7------|
F#|-1---1--1-1-3--1--3--5-|--5--5--4---4--4--5-|-1---1--1-1-3--1--3--5-|--5--5--4---4--3b--|
           * *                                          * * 
 E|-----------------------|--------------------|-----------------------|-------------------|
 B|-----------------------|--------------------|-----------------------|-------------------|
 G|-----------------------|--------------------|-----------------------|-------------------|
 D|-----------------------|--------------------|-----------------------|-------------------|
 A|-----------------------|--------------------|-----------------------|-------------------|
 E|-----------------------|--------------------|-----------------------|-------------------|
 B|-3---3--3-3-5--3--5--7-|--7--7--7---7--7--7-|-3---3--3-3-5--3--5--7-|--7--7--7---7--7---|
F#|-1---1--1-1-3--1--3--5-|--5--5--4---4--4--5-|-1---1--1-1-3--1--3--5-|--5--5--4---4--5---|
           * *                                          * * 

Guitar 3 (w/ dist and delay)

 E|-----------------|-----------|------------------|-----------|
 B|-12~~~~~---------|----15~~~~~|~11~~~~~----------|-----------|
 G|--------/s11--12~|~~~~-------|--------/s11------|-----------|
 D|-----------------|-----------|---------------11-|----12~~~~~|
 A|-----------------|-----------|------------------|-----------|
 E|-----------------|-----------|------------------|-----------|
 B|-----------------|-----------|------------------|-----------|
F#|-----------------|-----------|------------------|-----------|

                                                    ..........
 E|-----------------|-----------|-14-h15--------------|--------|
 B|-12~~~~~~--------|----15~~~~~|---------------------|---12---|
 G|--------/s11--12~|~~~~-------|---------15~~~19--15-|--------|
 D|-----------------|-----------|---------------------|--------|
 A|-----------------|-----------|---------------------|--------|
 E|-----------------|-----------|---------------------|--------|
 B|-----------------|-----------|---------------------|--------|
F#|-----------------|-----------|---------------------|--------|

|--------------------------------------------------------------------------------------------------------|
|                                       PRE-CHORUS 3 (02:23-02:39)                                       |
|--------------------------------------------------------------------------------------------------------|
                                            same as PRE-CHORUS
|--------------------------------------------------------------------------------------------------------|
|                                         CHORUS 3 (02:39-02:54)                                         |
|--------------------------------------------------------------------------------------------------------|
                                            same as CHORUS 2 
|--------------------------------------------------------------------------------------------------------|
|                                          OUTRO (02:54-03:11)                                           |
|--------------------------------------------------------------------------------------------------------|

Guitars 1 and 2 (w/ dist)

 E|-------------------------------|--------------------------------|
 B|-------------------------------|--------------------------------|
 G|-------------------------------|--------------------------------|
 D|-------------------------------|--------------------------------|
 A|-------------------------------|--------------------------------|
 E|-------------------------------|--------------------------------|
 B|-------------------------------|--------------------------------|
F#|-0--0-0-1p0-0-0-1--0-3--0-3b-r-|-b-r-0-0-1p0-0-0-3--0-1--0-3b-r-|
       * *     * *    *    *            * *     * *    *    *
 E|--------------------------------|-------------------------------|---------------|
 B|--------------------------------|-------------------------------|---------------|
 G|--------------------------------|-------------------------------|---------------|
 D|--------------------------------|-------------------------------|---------------|
 A|--------------------------------|-------------------------------|---------------|
 E|--------------------------------|-------------------------------|---------------|
 B|--------------------------------|-----------------5-8-8--5-7-7--|-5-8-8--5-7-7--|
F#|-b-r-0-0-1p0-0-0-3--0-1--0-3b-r-|-b-r-0-0-1p0-0-0---------------|---------------|
        * *     * *    *    *            * *     * *   

Добавлено: 07.10.2015
Другие материалы по этой песне:

Страница создана 07.10.2015
http://primanota.ru/fear-factory/soul-hacker-chords.htm
Привет, Гость.
Предлагаем пройти революционный курс по гитаре.
Подарок от PrimaNota.Ru, забирай!