PrimaNota.ru - самый крупный в мире бесплатный архив песенных текстов, аккордов, табулатур и нот


Fear Factory - Protomech - таба, видео

Регистрация Запомнить меня
Войти через:  Facebook Google Twitter Vk Yandex Mail.ru

Fear Factory - Protomech - таба, видео

Печатать
Просмотров: 130
Уроки эстрадного вокала в Санкт-Петербурге
Авторы: Burton C. Bell, Dino Cazares

|--------------------------------------------------------------------------------------------------------|
|                                        FEAR FACTORY - PROTOMECH                                        |
|                                          Album: GENEXUS (2015)                                         |
|--------------------------------------------------------------------------------------------------------|

                   If you have questions or corrections feel free to send me a message:
                                http://profile.ultimate-guitar.com/godspeedy/
                                    https://www.facebook.com/Godspeedy14
                     
                 Also check out my Youtube channel: http://www.youtube.com/user/Godspeedy14

                        *************************************************************
                        * NOTE: If you need a playthrough, check out my cover here: *
                        *        https://www.youtube.com/watch?v=lGSGuiE74_I        *
                        *************************************************************

                                       Tuning: 7 strings GCFA#D#GC
                                                    
*********************************************GUITAR NOTATIONS*********************************************
*                                                                                                        *
*                                      | *   palm mute           |                                       *
*                                      | s   slide               |                                       *
*                                      | h   hammer-on           |                                       *
*                                      | p   pull-off            |                                       *
*                                      | x   Mute note           |                                       *
*                                      | ..  let ring            |                                       *
*                                                                                                        *
**********************************************************************************************************

|--------------------------------------------------------------------------------------------------------|
|                                          INTRO (00:00-00:45)                                           |
|--------------------------------------------------------------------------------------------------------|

Guitars 1 and 2 (w/ dist)

 C|------------------|---------------------------|------------------|--------------------|
 G|------------------|---------------------------|------------------|--------------------|
D#|------------------|---------------------------|------------------|--------------------|
A#|------------------|---------------------------|------------------|--------------------|
 F|------------------|---------------------------|------------------|--------------------|
 C|------------------|---------------------------|------------------|--------------------|
 G|-2-2-2----2-2-2---|---2-2-2-2-2-2-2-2-2-2-2-2-|-2-2-2----2-2-2---|---2-2-2-2-2--2--0--|
    * * *    * * *       * * * * * * * * * * * *   * * *    * * *       * * * * *  *  * 
 C|------------------|---------------------------|------------------|--------------------|
 G|------------------|---------------------------|------------------|-----------------3--|
D#|------------------|---------------------------|------------------|-----------------3--|
A#|------------------|---------------------------|------------------|--------------------|
 F|------------------|---------------------------|------------------|--------------------|
 C|------------------|---------------------------|------------------|--------------------|
 G|-2-2-2----2-2-2---|---2-2-2-2-2-2-2-2-2-2-2-2-|-2-2-2----2-2-2---|---2-2-2-2-2--2-----|
    * * *    * * *       * * * * * * * * * * * *   * * *    * * *       * * * * *  *
 C|------------------|---------------------------|------------------|--------------------|
 G|------------------|---------------------------|------------------|--------------------|
D#|------------------|---------------------------|------------------|--------------------|
A#|------------------|---------------------------|------------------|--------------------|
 F|------------------|---------------------------|------------------|--------------------|
 C|------------------|---------------------------|------------------|--------------------|
 G|-2-2-2----2-2-2---|---2-2-2-2-2-2-2-2-2-2-2-2-|-2-2-2----2-2-2---|---2-2-2-2-2--2--0--|
    * * *    * * *       * * * * * * * * * * * *   * * *    * * *       * * * * *  *  *
 C|------------------|---------------------------|--------------------------|------------|
 G|------------------|---------------------------|--------------------------|------------|
D#|------------------|---------------------------|--------------------------|------------|
A#|------------------|---------------------------|--------------------------|------------|
 F|------------------|---------------------------|--------------------------|------------|
 C|------------------|---------------------------|--------------------------|------------|
 G|-2-2-2----2-2-2---|---2-2-2-2-2-2-2-2-2-2-2-2-|-2-2-2----2-2-2----2-2-2--|------------|
    * * *    * * *       * * * * * * * * * * * *   * * *    * * *    * * *

 C|------------------|---------------------------|------------------|--------------------|
 G|------------------|---------------------------|------------------|--------------------|
D#|------------------|---------------------------|------------------|--------------------|
A#|------------------|---------------------------|------------------|--------------------|
 F|------------------|---------------------------|------------------|--------------------|
 C|------------------|---------------------------|------------------|--------------------|
 G|-2-2-2----2-2-2---|---2-2-2-2-2-2-2-2-2-2-2-2-|-2-2-2----2-2-2---|---2-2-2-2-2--2--0--|
    * * *    * * *       * * * * * * * * * * * *   * * *    * * *       * * * * *  *  * 
 C|------------------|---------------------------|------------------|--------------------|
 G|------------------|---------------------------|------------------|-----------------3--|
D#|------------------|---------------------------|------------------|-----------------3--|
A#|------------------|---------------------------|------------------|--------------------|
 F|------------------|---------------------------|------------------|--------------------|
 C|------------------|---------------------------|------------------|--------------------|
 G|-2-2-2----2-2-2---|---2-2-2-2-2-2-2-2-2-2-2-2-|-2-2-2----2-2-2---|---2-2-2-2-2--2-----|
    * * *    * * *       * * * * * * * * * * * *   * * *    * * *       * * * * *  *
 C|------------------|---------------------------|------------------|--------------------|
 G|------------------|---------------------------|------------------|--------------------|
D#|------------------|---------------------------|------------------|--------------------|
A#|------------------|---------------------------|------------------|--------------------|
 F|------------------|---------------------------|------------------|--------------------|
 C|------------------|---------------------------|------------------|--------------------|
 G|-2-2-2----2-2-2---|---2-2-2-2-2-2-2-2-2-2-2-2-|-2-2-2----2-2-2---|---2-2-2-2-2--2--0--|
    * * *    * * *       * * * * * * * * * * * *   * * *    * * *       * * * * *  *  *
 C|------------------|---------------------------|--------------------------|--------------------|
 G|------------------|---------------------------|--------------------------|-----------------3--|
D#|------------------|---------------------------|--------------------------|-----------------3--|
A#|------------------|---------------------------|--------------------------|--------------------|
 F|------------------|---------------------------|--------------------------|--------------------|
 C|------------------|---------------------------|--------------------------|--------------------|
 G|-2-2-2----2-2-2---|---2-2-2-2-2-2-2-2-2-2-2-2-|-2-2-2----2-2-2----2-2-2--|---2-2-2-2-2--2-----|
    * * *    * * *       * * * * * * * * * * * *   * * *    * * *    * * *      * * * * *  *

 C|--------------------------|
 G|--------------------------|
D#|--------------------------| x8
A#|--------------------------| 
 F|--------------------------|
 C|--------------------------|
 G|-4-3-3--3--3-4-3--3--3----|
    * * *  *  * * *  *  * 

|--------------------------------------------------------------------------------------------------------|
|                                          VERSE (00:45-01:03)                                           |
|--------------------------------------------------------------------------------------------------------|

Guitars 1 and 2 (w/ dist)

 C|------------------------|------------------------|------------------------|-----------------------|
 G|------------------------|------------------------|------------------------|-----------------------|
D#|------------------------|------------------------|------------------------|-----------------------|
A#|------------------------|------------------------|------------------------|-------------------6s5-|\
 F|------------------------|------------------------|------------------------|-----------------------| \ 
 C|------------------------|------------------------|------------------------|-----------------------|  \
 G|-4-3-3--3--3-4-3--3--3--|--4-3-3--3--3-4-3--3--3-|-4-3-3--3--3-4-3--3--3--|--4-3-3--3--3-4-3------|   \
    * * *  *  * * *  *  *     * * *  *  * * *  *  *   * * *  *  * * *  *  *     * * *  *  * * *           \
                                                                                                           x2
 C|------------------------|------------------------|------------------------|----------------------------|/
 G|------------------------|------------------------|------------------------|----------------------------|
D#|------------------------|------------------------|------------------------|----------------------------|
A#|------------------------|------------------------|------------------------|----------------------------|
 F|------------------------|------------------------|------------------------|----------------------------|
 C|------------------------|------------------------|------------------------|----------------------------|
 G|-4-3-3--3--3-4-3--3--3--|--4-3-3--3--3-4-3--3--3-|-4-3-3--3--3-4-3--3--3--|--4-3-3--3--4-4-4-4-4-4-4-4-|
    * * *  *  * * *  *  *     * * *  *  * * *  *  *   * * *  *  * * *  *  *     * * *  *  * * * * * * * * 
                                     
|--------------------------------------------------------------------------------------------------------|
|                                        PRE-CHORUS (01:03-01:22)                                        |
|--------------------------------------------------------------------------------------------------------|

Guitars 1 and 2 (w/ dist)

 C|---------------------------|----------------------------|
 G|---------------------------|----------------------------|
D#|---------------------------|----------------------------|
A#|---------------------------|----------------------------|
 F|---------------------------|----------------------------|
 C|---------------------------|----------------------------|
 G|-5-4-4--4--5-4-4--4--4-----|-5-4-4--4--5-4-4--4--4------|
    * * *  *  * * *  *  *       * * *  *  * * *  *  * 
                                                              x2
 C|---------------------------|----------------------------|
 G|---------------------------|----------------------------|
D#|---------------------------|----------------------------|
A#|---------------------------|----------------------------|
 F|---------------------------|----------------------------|
 C|---------------------------|----------------------------|
 G|-5-4-4--4--5-4-4--4--4-----|-5-5-5--5-5-5--5-5-5--5-5-5-|
    * * *  *  * * *  *  *       * * *  * * *  * * *  * * *

 C|------------------|---------------------------|------------------|--------------------|
 G|------------------|---------------------------|------------------|--------------------|
D#|------------------|---------------------------|------------------|--------------------|
A#|------------------|---------------------------|------------------|--------------------|
 F|------------------|---------------------------|------------------|--------------------|
 C|------------------|---------------------------|------------------|--------------------|
 G|-2-2-2----2-2-2---|---2-2-2-2-2-2-2-2-2-2-2-2-|-2-2-2----2-2-2---|---2-2-2-2-2--2--0--|
    * * *    * * *       * * * * * * * * * * * *   * * *    * * *       * * * * *  *  * 
 C|------------------|---------------------------|------------------|--------------------|
 G|------------------|---------------------------|------------------|-----------------3--|
D#|------------------|---------------------------|------------------|-----------------3--|
A#|------------------|---------------------------|------------------|--------------------|
 F|------------------|---------------------------|------------------|--------------------|
 C|------------------|---------------------------|------------------|--------------------|
 G|-2-2-2----2-2-2---|---2-2-2-2-2-2-2-2-2-2-2-2-|-2-2-2----2-2-2---|---2-2-2-2-2--2-----|
    * * *    * * *       * * * * * * * * * * * *   * * *    * * *       * * * * *  *

|--------------------------------------------------------------------------------------------------------|
|                                         VERSE 2 (01:22-01:40)                                          |
|--------------------------------------------------------------------------------------------------------|
                                              same as VERSE
|--------------------------------------------------------------------------------------------------------|
|                                       PRE-CHORUS 2 (01:40-01:50)                                       |
|--------------------------------------------------------------------------------------------------------|

Guitars 1 and 2 (w/ dist) 

 C|---------------------------|----------------------------|
 G|---------------------------|----------------------------|
D#|---------------------------|----------------------------|
A#|---------------------------|----------------------------|
 F|---------------------------|----------------------------|
 C|---------------------------|----------------------------|
 G|-5-4-4--4--5-4-4--4--4-----|-5-4-4--4--5-4-4--4--4------|
    * * *  *  * * *  *  *       * * *  *  * * *  *  * 

 C|---------------------------|----------------------------|
 G|---------------------------|----------------------------|
D#|---------------------------|----------------------------|
A#|---------------------------|----------------------------|
 F|---------------------------|----------------------------|
 C|---------------------------|----------------------------|
 G|-5-4-4--4--5-4-4--4--4-----|-5-5-5--5-5-5--5-5-5--5-5-5-|
    * * *  *  * * *  *  *       * * *  * * *  * * *  * * *

 C|---------------------------|----------------------------|
 G|---------------------------|----------------------------|
D#|---------------------------|----------------------------|
A#|---------------------------|----------------------------|
 F|---------------------------|----------------------------|
 C|---------------------------|----------------------------|
 G|-5-4-4--4--5-4-4--4--4-----|-5-4-4--4--5-4-4--4--4------|
    * * *  *  * * *  *  *       * * *  *  * * *  *  * 

 C|---------------------------|----------------------------|
 G|---------------------------|----------------------------|
D#|---------------------------|----------------------------|
A#|---------------------------|----------------------------|
 F|---------------------------|----------------------------|
 C|---------------------------|----------------------------|
 G|-5-4-4--4--5-4-4--4--4-----|-5--------------------------|
    * * *  *  * * *  *  *       *

|--------------------------------------------------------------------------------------------------------|
|                                          CHORUS (01:50-02:34)                                          |
|--------------------------------------------------------------------------------------------------------|

Guitars 1 and 2 (w/ dist)

 C|---------------------------------|--------------|---------------------------------|--------------|
 G|---------------------------------|--------------|---------------------------------|--------------|
D#|---------------------------------|--------------|---------------------------------|--------------|
A#|---------------------------------|-7----7----7--|---------------------------------|-7----7----7--|
 F|---------------------------------|-5----5----5--|---------------------------------|-5----5----5--|
 C|-3-3-3-3-3-3-3-3-3-3-3-3-3-3-3-3-|--------------|-2-2-2-2-2-2-2-2-2-2-2-2-2-2-2-2-|--------------|
 G|---------------------------------|--------------|---------------------------------|--------------|
    * * * * * * * * * * * * * * * *                  * * * * * * * * * * * * * * * * 

 C|---------------------------------|--------------|---------------------------------|--------------|
 G|---------------------------------|--------------|---------------------------------|--------------|
D#|---------------------------------|--------------|---------------------------------|--------------|
A#|---------------------------------|-5----5----5--|---------------------------------|--------------|
 F|---------------------------------|-3----3----3--|---------------------------------|-5----7----4--|
 C|-1-1-1-1-1-1-1-1-1-1-1-1-1-1-1-1-|--------------|-0-0-0-0-0-0-0-0-0-0-0-0-0-0-0-0-|-3----5----2--|
 G|---------------------------------|--------------|---------------------------------|--------------|
    * * * * * * * * * * * * * * * *                  * * * * * * * * * * * * * * * * 

 C|---------------------------------|--------------|---------------------------------|--------------|
 G|---------------------------------|--------------|---------------------------------|--------------|
D#|---------------------------------|--------------|---------------------------------|--------------|
A#|---------------------------------|-7----7----7--|---------------------------------|-7----7----7--|
 F|---------------------------------|-5----5----5--|---------------------------------|-5----5----5--|
 C|-3-3-3-3-3-3-3-3-3-3-3-3-3-3-3-3-|--------------|-2-2-2-2-2-2-2-2-2-2-2-2-2-2-2-2-|--------------|
 G|---------------------------------|--------------|---------------------------------|--------------|
    * * * * * * * * * * * * * * * *                  * * * * * * * * * * * * * * * * 

 C|---------------------------------|--------------|---------------------------------|--------------|
 G|---------------------------------|--------------|---------------------------------|--------------|
D#|---------------------------------|--------------|---------------------------------|--------------|
A#|---------------------------------|-5----5----5--|---------------------------------|--------------|
 F|---------------------------------|-3----3----3--|---------------------------------|--------------|
 C|-1-1-1-1-1-1-1-1-1-1-1-1-1-1-1-1-|--------------|-0-0-0-0-0-0-0-0-0-0-0-0-0-0-0-0-|-3----5----2--|
 G|---------------------------------|--------------|---------------------------------|-1----3----0--|
    * * * * * * * * * * * * * * * *                  * * * * * * * * * * * * * * * * 

 C|----------------------------|--------------|----------------------------|--------------|
 G|----------------------------|--------------|----------------------------|--------------|
D#|----------------------------|--------------|----------------------------|--------------|
A#|----------------------------|-7----7----7--|----------------------------|-7----7----7--|
 F|----------------------------|-5----5----5--|----------------------------|-5----5----5--|
 C|-3-3-3---3--3-3-3-3-3-3-3-3-|--------------|-2-2-2---2--2-2-2-2-2-2-2-2-|--------------|
 G|----------------------------|--------------|----------------------------|--------------|
    * * *   *  * * * * * * * *                  * * *   *  * * * * * * * * 
 C|----------------------------|--------------|----------------------------|--------------|
 G|----------------------------|--------------|----------------------------|--------------|
D#|----------------------------|--------------|----------------------------|--------------|
A#|----------------------------|-5----5----5--|----------------------------|--------------|
 F|----------------------------|-3----3----3--|----------------------------|-5----7----4--|
 C|-1-1-1---1--1-1-1-1-1-1-1-1-|--------------|-0-0-0---0--0-0-0-0-0-0-0-0-|-3----5----2--|
 G|----------------------------|--------------|----------------------------|--------------|
    * * *   *  * * * * * * * *                  * * *   *  * * * * * * * * 
 C|----------------------------|--------------|----------------------------|--------------|
 G|----------------------------|--------------|----------------------------|--------------|
D#|----------------------------|--------------|----------------------------|--------------|
A#|----------------------------|-7----7----7--|----------------------------|-7----7----7--|
 F|----------------------------|-5----5----5--|----------------------------|-5----5----5--|
 C|-3-3-3---3--3-3-3-3-3-3-3-3-|--------------|-2-2-2---2--2-2-2-2-2-2-2-2-|--------------|
 G|----------------------------|--------------|----------------------------|--------------|
    * * *   *  * * * * * * * *                  * * *   *  * * * * * * * * 
 C|----------------------------|--------------|----------------------------|--------------|--------------|
 G|----------------------------|--------------|----------------------------|--------------|--------------|
D#|----------------------------|--------------|----------------------------|--------------|--------------|
A#|----------------------------|-5----5----5--|----------------------------|--------------|--------------|
 F|----------------------------|-3----3----3--|----------------------------|--------------|--------------|
 C|-1-1-1---1--1-1-1-1-1-1-1-1-|--------------|-0-0-0---0--0-0-0-0-0-0-0-0-|-3----5----2--|-5----6----8--|
 G|----------------------------|--------------|----------------------------|-1----3----0--|-3----4----6--|
    * * *   *  * * * * * * * *                  * * *   *  * * * * * * * * 

 C|--------------|--------------|
 G|--------------|--------------|
D#|--------------|--------------| x3
A#|--------------|--------------|
 F|--------------|--------------|
 C|-3----5----2--|-5----6----8--|
 G|-1----3----0--|-3----4----6--|

|--------------------------------------------------------------------------------------------------------|
|                                          BRIDGE (02:34-03:20)                                          |
|--------------------------------------------------------------------------------------------------------|

Guitars 1 and 2 (w/ dist)

 C|------------------------|-------------------------|------------------------|------------------------|
 G|------------------------|-------------------------|------------------------|------------------------|
D#|------------------------|-------------------------|------------------------|------------------------|
A#|------------------------|-------------------------|------------------------|-------------6-s7--7--7-|
 F|------------------------|-------------------------|------------------------|-------------x--x--x--x-|
 C|------------------------|-------------------------|------------------------|-------------4-s5--5--5-|
 G|-0-h1--0--1-p0--0--1-p0-|-0--1-p0--0--1-p0--0-0-0-|-0-h1--0--1-p0--0--1-p0-|-0--1-p0--0-------------|
          *        *         *        *        * * *         *        *         *        *

 C|------------------------|-------------------------|---------------------------|---------------------|
 G|------------------------|-------------------------|---------------------------|---------------------|
D#|------------------------|-------------------------|---------------------------|---------------------|
A#|------------------------|-------------------------|---------------------------|---------------------|
 F|------------------------|-------------------------|---------------------------|---------------------|
 C|------------------------|-------------------------|---------------------------|---------------------|
 G|-0-h1--0--1-p0--0--1-p0-|-0--1-p0--0--1-p0--0-0-0-|-0-h1--0--1-p0--0--1-0-0-0-|-0--1-0-0-0-0--4-----|
          *        *         *        *        * * *         *        *  * * * *   *  * * * * *  *

 C|------------------------|-------------------------|------------------------|------------------------|
 G|------------------------|-------------------------|------------------------|------------------------|
D#|------------------------|-------------------------|------------------------|------------------------|
A#|------------------------|-------------------------|------------------------|-------------6-s7--7--7-|
 F|------------------------|-------------------------|------------------------|-------------x--x--x--x-|
 C|------------------------|-------------------------|------------------------|-------------4-s5--5--5-|
 G|-0-h1--0--1-p0--0--1-p0-|-0--1-p0--0--1-p0--0-0-0-|-0-h1--0--1-p0--0--1-p0-|-0--1-p0--0-------------|
          *        *         *        *        * * *         *        *         *        *

 C|------------------------|-------------------------|------------------------|------------------------|
 G|------------------------|-------------------------|------------------------|------------------------|
D#|------------------------|-------------------------|------------------------|------------------------|
A#|------------------------|-------------------------|------------------------|------------------------|
 F|------------------------|-------------------------|------------------------|------------------------|
 C|------------------------|-------------------------|------------------------|------------------------|
 G|-0-h1--0--1-p0--0--1-p0-|-0--1-p0--0--1-p0--0-0-0-|-0-h1--0--1-p0--0--1-p0-|-0--1-p0--0--3-3-3-3-4--|
          *        *         *        *        * * *         *        *         *        *  * * * * *

 C|----------------------|----------------------|     |----------------------|----------------------|
 G|----------------------|----------------------|     |----------------------|----------------------|
D#|----------------------|----------------------|     |----------------------|----------------------|
A#|----------------------|----------------------| x3  |----------------------|----------------------|
 F|----------4-----------|----3------------1-p0-|     |----------4-----------|----3------1-p0--1-p0-|
 C|----------------------|----------------------|     |----------------------|----------------------|
 G|-0-h1--0------0--0-h1-|-0------0--0-h1-------|     |-0-h1--0------0--0-h1-|-0------0-------------|
          *      *         *      *                           *      *         *      *

 C|----------------------|----------------------|     |----------------------|----------------------|
 G|----------------------|----------------------|     |----------------------|----------------------|
D#|----------------------|----------------------|     |----------------------|----------------------|
A#|----------6-----------|----5-----------------| x3  |----------6-----------|----5-----------------|
 F|----------4-----------|----3------------1-p0-|     |----------4-----------|----3------1-p0--1-p0-|
 C|----------------------|----------------------|     |----------------------|----------------------|
 G|-0-h1--0------0--0-h1-|-0------0--0-h1-------|     |-0-h1--0------0--0-h1-|-0------0-------------|
          *      *         *      *                           *      *         *      *

after that, 7 bars without guitars, then:

 C|--------------|---------------|
 G|--------------|---------------|
D#|--------------|---------------|
A#|--------------|---------------|
 F|--------------|---------------|
 C|-3----5----2--|-5----6--------|
 G|-1----3----0--|-3----4--------|

|--------------------------------------------------------------------------------------------------------|
|                                         CHORUS 2 (03:20-04:22)                                         |
|--------------------------------------------------------------------------------------------------------|

Guitars 1 and 2 (w/ dist)

 C|---------------------------------|--------------|---------------------------------|--------------|
 G|---------------------------------|--------------|---------------------------------|--------------|
D#|---------------------------------|--------------|---------------------------------|--------------|
A#|---------------------------------|-7----7----7--|---------------------------------|-7----7----7--|
 F|---------------------------------|-5----5----5--|---------------------------------|-5----5----5--|
 C|-3-3-3-3-3-3-3-3-3-3-3-3-3-3-3-3-|--------------|-2-2-2-2-2-2-2-2-2-2-2-2-2-2-2-2-|--------------|
 G|---------------------------------|--------------|---------------------------------|--------------|
    * * * * * * * * * * * * * * * *                  * * * * * * * * * * * * * * * * 

 C|---------------------------------|--------------|---------------------------------|--------------|
 G|---------------------------------|--------------|---------------------------------|--------------|
D#|---------------------------------|--------------|---------------------------------|--------------|
A#|---------------------------------|-5----5----5--|---------------------------------|--------------|
 F|---------------------------------|-3----3----3--|---------------------------------|-5----7----4--|
 C|-1-1-1-1-1-1-1-1-1-1-1-1-1-1-1-1-|--------------|-0-0-0-0-0-0-0-0-0-0-0-0-0-0-0-0-|-3----5----2--|
 G|---------------------------------|--------------|---------------------------------|--------------|
    * * * * * * * * * * * * * * * *                  * * * * * * * * * * * * * * * * 

 C|---------------------------------|--------------|---------------------------------|--------------|
 G|---------------------------------|--------------|---------------------------------|--------------|
D#|---------------------------------|--------------|---------------------------------|--------------|
A#|---------------------------------|-7----7----7--|---------------------------------|-7----7----7--|
 F|---------------------------------|-5----5----5--|---------------------------------|-5----5----5--|
 C|-3-3-3-3-3-3-3-3-3-3-3-3-3-3-3-3-|--------------|-2-2-2-2-2-2-2-2-2-2-2-2-2-2-2-2-|--------------|
 G|---------------------------------|--------------|---------------------------------|--------------|
    * * * * * * * * * * * * * * * *                  * * * * * * * * * * * * * * * * 

 C|---------------------------------|--------------|---------------------------------|--------------|
 G|---------------------------------|--------------|---------------------------------|--------------|
D#|---------------------------------|--------------|---------------------------------|--------------|
A#|---------------------------------|-5----5----5--|---------------------------------|--------------|
 F|---------------------------------|-3----3----3--|---------------------------------|--------------|
 C|-1-1-1-1-1-1-1-1-1-1-1-1-1-1-1-1-|--------------|-0-0-0-0-0-0-0-0-0-0-0-0-0-0-0-0-|-3----5----2--|
 G|---------------------------------|--------------|---------------------------------|-1----3----0--|
    * * * * * * * * * * * * * * * *                  * * * * * * * * * * * * * * * * 

 C|----------------------------|--------------|----------------------------|--------------|
 G|----------------------------|--------------|----------------------------|--------------|
D#|----------------------------|--------------|----------------------------|--------------|
A#|----------------------------|-7----7----7--|----------------------------|-7----7----7--|
 F|----------------------------|-5----5----5--|----------------------------|-5----5----5--|
 C|-3-3-3---3--3-3-3-3-3-3-3-3-|--------------|-2-2-2---2--2-2-2-2-2-2-2-2-|--------------|
 G|----------------------------|--------------|----------------------------|--------------|
    * * *   *  * * * * * * * *                  * * *   *  * * * * * * * * 
 C|----------------------------|--------------|----------------------------|--------------|
 G|----------------------------|--------------|----------------------------|--------------|
D#|----------------------------|--------------|----------------------------|--------------|
A#|----------------------------|-5----5----5--|----------------------------|--------------|
 F|----------------------------|-3----3----3--|----------------------------|-5----7----4--|
 C|-1-1-1---1--1-1-1-1-1-1-1-1-|--------------|-0-0-0---0--0-0-0-0-0-0-0-0-|-3----5----2--|
 G|----------------------------|--------------|----------------------------|--------------|
    * * *   *  * * * * * * * *                  * * *   *  * * * * * * * * 
 C|----------------------------|--------------|----------------------------|--------------|
 G|----------------------------|--------------|----------------------------|--------------|
D#|----------------------------|--------------|----------------------------|--------------|
A#|----------------------------|-7----7----7--|----------------------------|-7----7----7--|
 F|----------------------------|-5----5----5--|----------------------------|-5----5----5--|
 C|-3-3-3---3--3-3-3-3-3-3-3-3-|--------------|-2-2-2---2--2-2-2-2-2-2-2-2-|--------------|
 G|----------------------------|--------------|----------------------------|--------------|
    * * *   *  * * * * * * * *                  * * *   *  * * * * * * * * 
 C|----------------------------|--------------|----------------------------|--------------|
 G|----------------------------|--------------|----------------------------|--------------|
D#|----------------------------|--------------|----------------------------|--------------|
A#|----------------------------|-5----5----5--|----------------------------|--------------|
 F|----------------------------|-3----3----3--|----------------------------|--------------|
 C|-1-1-1---1--1-1-1-1-1-1-1-1-|--------------|-0-0-0---0--0-0-0-0-0-0-0-0-|-3----5----2--|
 G|----------------------------|--------------|----------------------------|-1----3----0--|
    * * *   *  * * * * * * * *                  * * *   *  * * * * * * * * 

 C|--------------|
 G|--------------|
D#|--------------|
A#|--------------|
 F|--------------|
 C|-5----6----8--|
 G|-3----4----6--|
    
 C|--------------|--------------|
 G|--------------|--------------|
D#|--------------|--------------| x3
A#|--------------|--------------|
 F|--------------|--------------|
 C|-3----5----2--|-5----6----8--|
 G|-1----3----0--|-3----4----6--|
   
|--------------------------------------------------------------------------------------------------------|
|                                          OUTRO (04:22-04:56)                                           |
|--------------------------------------------------------------------------------------------------------|

Guitars 1 and 2 (w/ dist)

     .................................
 C|--------|--------|--------|--------|
 G|--------|--------|--------|--------|
D#|--------|--------|--------|--------|
A#|-5------|--------|--------|--------|
 F|-5------|--------|--------|--------|
 C|-3------|--------|--------|--------|
 G|--------|--------|--------|--------|

Добавлено: 07.10.2015
Другие материалы по этой песне:

Страница создана 07.10.2015
http://primanota.ru/fear-factory/protomech-chords.htm
Привет, Гость.
Предлагаем пройти революционный курс по гитаре.
Подарок от PrimaNota.Ru, забирай!