PrimaNota.ru - самый крупный в мире бесплатный архив песенных текстов, аккордов, табулатур и нот


Fear Factory - Genexus (album) - таба, видео

Регистрация Запомнить меня
Войти через:  Facebook Google Twitter Vk Yandex Mail.ru

Fear Factory - Genexus (album) - таба, видео

Печатать
Просмотров: 118
Уроки эстрадного вокала в Санкт-Петербурге
|--------------------------------------------------------------------------------------------------------|
|                                     FEAR FACTORY - GENEXUS ALBUM TAB                                   |
|                                               31.08.2015                                               |
|                                            Tab by Godspeedy                                            |
|--------------------------------------------------------------------------------------------------------|

                   If you have questions or corrections feel free to send me a message:
                                    https://www.facebook.com/Godspeedy14
                     
                 Also check out my Youtube channel: http://www.youtube.com/user/Godspeedy14

                        *************************************************************
                        * NOTE: If you need a playthrough, check out my cover here: *
                        *       https://www.youtube.com/watch?v=L2Pr7Pfa8dw         *
                        *************************************************************

         Tunings: 7 strings BEADGBE, 7 strings ADGCFAD, 7 strings GCFA#D#GC, 8 strings F#BEADGBE

**********************************************TRACK LIST**************************************************
*                                                                                                        *
*                                     1. AUTONOMOUS COMBAT SYSTEM                                        *
*                                     2. ANODIZED                                                        *
*                                     3. DIELECTRIC                                                      *
*                                     4. SOUL HACKER                                                     *
*                                     5. PROTOMECH                                                       *
*                                     6. GENEXUS                                                         *
*                                     7. CHURCH OF EXECUTION                                             *
*                                     8. REGENERATE                                                      *
*                                     9. BATTLE FOR UTOPIA                                               *
*                                     10. EXPIRATION DATE                                                *
*                                                                                                        *
**********************************************************************************************************

*********************************************GUITAR NOTATIONS*********************************************
*                                                                                                        *
*                                      | *   palm mute           |                                       *
*                                      | s   slide               |                                       *
*                                      | /s  slide in from below |                                       *
*                                      | h   hammer-on           |                                       *
*                                      | p   pull-off            |                                       *
*                                      | ~   vibrato             |                                       *
*                                      | x   muted note          |                                       *
*                                      | b   bend                |                                       *
*                                      | r   release             |                                       *
*                                      | br  bend release        |                                       *
*                                      | ..  let ring            |                                       *
*                                      | ''  natural harmonics   |                                       *
*                                      | П   downstroke          |                                       *
*                                      | V   upstroke            |                                       *
*                                                                                                        *
**********************************************************************************************************

**********************************************************************************************************
*                                     1. AUTONOMOUS COMBAT SYSTEM                                        *
**********************************************************************************************************

|--------------------------------------------------------------------------------------------------------|
|                                          INTRO (00:00-01:28)                                           |
|--------------------------------------------------------------------------------------------------------|

Guitars 1 and 2 (w/ dist)

   П               П       П       П               П        П
D|-------|-------|-------|-------|-------|-------|--------|--------|
A|-------|-------|-------|-------|-------|-------|--------|--------|
F|-------|-------|-------|-------|-------|-------|--------|--------| x2
C|-------|-------|-4-----|-7-----|-6-----|-------|-7------|-4------|
G|-------|-------|-x-----|-x-----|-x-----|-------|-x------|-x------|
D|-2-----|-------|-2-----|-5-----|-4-----|-------|-5------|-2------|
A|-0-----|-------|-------|-------|-------|-------|--------|--------|

   П V П V П  П V П V П  П  П      П V П V П  П V П V П
D|----------------------------|-----------------------------|
A|----------------------------|-----------------------------|
F|----------------------------|-----------------------------| x2
C|----------------------------|-----------------------------|
G|----------------------------|-----------------------------|
D|----------------------------|-----------------------------|
A|-3-3-3-3-3--3-3-3-3-3--3--3-|----3-3-3-3-3--3-3-3-3-3-----|
   * * * * *  * * * * *  *  *      * * * * *  * * * * *

   П V П V П  П V П V П  П  П   П  П V П V П  П V П V П  П
D|----------------------------|----------------------------|
A|----------------------------|----------------------------|
F|----------------------------|----------------------------|
C|----------------------------|----------------------------|
G|----------------------------|----------------------------|
D|----------------------------|----------------------------|
A|-3-3-3-3-3--3-3-3-3-3--3--3-|-3--3-3-3-3-3--3-3-3-3-3--3-|
   * * * * *  * * * * *  *  *   *  * * * * *  * * * * *  *

   П V П V П  П V П V П  П  П   П  П V П V П  П
D|----------------------------|-----------------------|
A|----------------------------|-----------------------|
F|----------------------------|-----------------------|
C|----------------------------|-----------------------|
G|----------------------------|-----------------------|
D|----------------------------|-----------------------|
A|-3-3-3-3-3--3-3-3-3-3--3--3-|-3--3-3-3-3-3--3-------|
   * * * * *  * * * * *  *  *   *  * * * * *  *

   П V П V П  П V П V П  П  П   П  П V П V П  П V П V П  П
D|----------------------------|----------------------------|
A|----------------------------|----------------------------|
F|----------------------------|----------------------------| x3
C|----------------------------|----------------------------|
G|----------------------------|----------------------------|
D|----------------------------|----------------------------|
A|-3-3-3-3-3--3-3-3-3-3--3--3-|-3--3-3-3-3-3--3-3-3-3-3--3-|
   * * * * *  * * * * *  *  *   *  * * * * *  * * * * *  *

   П V П V П  П V П V П  П  П   П  П V П V П  П V П V П
D|----------------------------|----------------------------|
A|----------------------------|----------------------------|
F|----------------------------|----------------------------|
C|----------------------------|----------------------------|
G|----------------------------|----------------------------|
D|----------------------------|----------------------------|
A|-3-3-3-3-3--3-3-3-3-3--3--3-|-3--3-3-3-3-3--3-3-3-3-3----|
   * * * * *  * * * * *  *  *   *  * * * * *  * * * * *

   П V П V П  П V П V П  П  П   П  П V П V П  П V П V П  П
D|----------------------------|----------------------------|
A|----------------------------|----------------------------|
F|----------------------------|----------------------------| x3
C|----------------------------|----------------------------|
G|----------------------------|----------------------------|
D|----------------------------|----------------------------|
A|-3-3-3-3-3--3-3-3-3-3--3--3-|-3--3-3-3-3-3--3-3-3-3-3--3-|
   * * * * *  * * * * *  *  *   *  * * * * *  * * * * *  *

   П V П V П  П V П V П  П  П   П  П V П V П  П
D|----------------------------|-----------------------|
A|----------------------------|-----------------------|
F|----------------------------|-----------------------|
C|----------------------------|-----------------------|
G|----------------------------|-----------------------|
D|----------------------------|-----------------------|
A|-3-3-3-3-3--3-3-3-3-3--3--3-|-3--3-3-3-3-3--3-------|
   * * * * *  * * * * *  *  *   *  * * * * *  *

|--------------------------------------------------------------------------------------------------------|
|                                          VERSE (01:28-01:49)                                           |
|--------------------------------------------------------------------------------------------------------|

Guitars 1 and 2 (w/ dist)

   П V П V П  П V П V П  П  П      П V П V П  П V П V П
D|----------------------------|----------------------------|
A|----------------------------|----------------------------|
F|----------------------------|----------------------------|
C|----------------------------|----------------------------|
G|----------------------------|----------------------------|
D|----------------------------|----------------------------|
A|-2-2-2-2-2--2-2-2-2-2--2--2-|----2-2-2-2-2--2-2-2-2-2----|
   * * * * *  * * * * *  *  *      * * * * *  * * * * *

   П V П V П  П V П V П  П  П      П V П V П  П V П V П  П
D|----------------------------|----------------------------|
A|----------------------------|----------------------------|
F|----------------------------|----------------------------|
C|----------------------------|----------------------------|
G|----------------------------|----------------------------|
D|----------------------------|----------------------------|
A|-2-2-2-2-2--2-2-2-2-2--2--2-|----2-2-2-2-2--2-2-2-2-2--2-|
   * * * * *  * * * * *  *  *      * * * * *  * * * * *  *

   П V П V П  П V П V П  П  П      П V П V П  П V П V П
D|----------------------------|----------------------------|
A|----------------------------|----------------------------|
F|----------------------------|----------------------------|
C|----------------------------|----------------------------|
G|----------------------------|----------------------------|
D|----------------------------|----------------------------|
A|-2-2-2-2-2--2-2-2-2-2--2--2-|----2-2-2-2-2--2-2-2-2-2----|
   * * * * *  * * * * *  *  *      * * * * *  * * * * *

   П V П V П  П V П V П  П  П      П V П V П  П V П V П
D|----------------------------|----------------------------|
A|----------------------------|----------------------------|
F|----------------------------|----------------------------|
C|----------------------------|----------------------------|
G|----------------------------|----------------------------|
D|----------------------------|----------------------------|
A|-2-2-2-2-2--2-2-2-2-2--2--2-|----2-2-2-2-2--2-2-2-2-2----|
   * * * * *  * * * * *  *  *      * * * * *  * * * * *

   П V П V П  П V П V П  П  П   П  П V П V П  П V П V П  П
D|----------------------------|----------------------------|
A|----------------------------|----------------------------|
F|----------------------------|----------------------------| x3
C|----------------------------|----------------------------|
G|----------------------------|----------------------------|
D|----------------------------|----------------------------|
A|-2-2-2-2-2--2-2-2-2-2--2--2-|-2--2-2-2-2-2--2-2-2-2-2--2-|
   * * * * *  * * * * *  *  *   *  * * * * *  * * * * *  *

   П V П V П  П V П V П  П V П V   П  П V П V П  П V П  П V П
D|-------------------------------|----------------------------|
A|-------------------------------|----------------------------|
F|-------------------------------|----------------------------|
C|-------------------------------|----------------------------|
G|-------------------------------|----------------------------|
D|-------------------------------|----------------------------|
A|-3-3-3-3-3--3-3-3-3-3--4-4-4-4-|-4--4-4-4-4-4--6-6-6--6-6-6-|
   * * * * *  * * * * *  * * * *   *  * * * * *  * * *  * * *

|--------------------------------------------------------------------------------------------------------|
|                                        PRE-CHORUS (01:49-02:01)                                        |
|--------------------------------------------------------------------------------------------------------|

Guitars 1 and 2 (w/ dist)

   П  V  П  П  V  П  П V П V   П V П V П  П  П  V  П
D|---------------------------|-------------------------|
A|---------------------------|-------------------------|
F|---------------------------|-------------------------| x3
C|---------------------------|-------------------------|
G|---------------------------|-------------------------|
D|---------------------------|-------------------------|
A|-4--3--3--4--3--3--3-3-3-3-|-3-3-3-3-4--3--3--4--6---|
         *        *  * * * *   * * * *    *

   П  V  П  П  V  П  П V П V   П V П V П  П  П  П  П
D|---------------------------|-------------------------|
A|---------------------------|-------------------------|
F|---------------------------|-------------------------|
C|---------------------------|-------------------------|
G|---------------------------|-------------------------|
D|---------------------------|---------------5--6--8---|
A|-4--3--3--4--3--3--3-3-3-3-|-3-3-3-3-4--3--3--4--6---|
         *        *  * * * *   * * * *    *

|--------------------------------------------------------------------------------------------------------|
|                                         VERSE 2 (02:01-02:22)                                          |
|--------------------------------------------------------------------------------------------------------|

Guitars 1 and 2 (w/ dist)

   П V П V П  П V П V П  П  П      П V П V П  П V П V П
D|----------------------------|----------------------------|
A|----------------------------|----------------------------|
F|----------------------------|----------------------------|
C|----------------------------|----------------------------|
G|----------------------------|----------------------------|
D|----------------------------|----------------------------|
A|-2-2-2-2-2--2-2-2-2-2--2--2-|----2-2-2-2-2--2-2-2-2-2----|
   * * * * *  * * * * *  *  *      * * * * *  * * * * *

   П V П V П  П V П V П  П  П      П V П V П  П V П V П  П
D|----------------------------|----------------------------|
A|----------------------------|----------------------------|
F|----------------------------|----------------------------|
C|----------------------------|----------------------------|
G|----------------------------|----------------------------|
D|----------------------------|----------------------------|
A|-2-2-2-2-2--2-2-2-2-2--2--2-|----2-2-2-2-2--2-2-2-2-2--2-|
   * * * * *  * * * * *  *  *      * * * * *  * * * * *  *

   П V П V П  П V П V П  П  П      П V П V П  П V П V П
D|----------------------------|----------------------------|
A|----------------------------|----------------------------|
F|----------------------------|----------------------------|
C|----------------------------|----------------------------|
G|----------------------------|----------------------------|
D|----------------------------|----------------------------|
A|-2-2-2-2-2--2-2-2-2-2--2--2-|----2-2-2-2-2--2-2-2-2-2----|
   * * * * *  * * * * *  *  *      * * * * *  * * * * *

   П V П V П  П V П V П  П  П      П V П V П  П V П V П
D|----------------------------|----------------------------|
A|----------------------------|----------------------------|
F|----------------------------|----------------------------|
C|----------------------------|----------------------------|
G|----------------------------|----------------------------|
D|----------------------------|----------------------------|
A|-2-2-2-2-2--2-2-2-2-2--2--2-|----2-2-2-2-2--2-2-2-2-2----|
   * * * * *  * * * * *  *  *      * * * * *  * * * * *

   П V П V П  П V П V П  П  П   П  П V П V П  П V П V П  П
D|----------------------------|----------------------------|
A|----------------------------|----------------------------|
F|----------------------------|----------------------------| x3
C|----------------------------|----------------------------|
G|----------------------------|----------------------------|
D|----------------------------|----------------------------|
A|-2-2-2-2-2--2-2-2-2-2--2--2-|-2--2-2-2-2-2--2-2-2-2-2--2-|
   * * * * *  * * * * *  *  *   *  * * * * *  * * * * *  *

   П V П V П  П V П V П  П V П V   П  П V П V П  П
D|-------------------------------|-------------------------|
A|-------------------------------|-------------------------|
F|-------------------------------|-------------------------|
C|-------------------------------|-------------------------|
G|-------------------------------|-------------------------|
D|-------------------------------|-------------------------|
A|-3-3-3-3-3--3-3-3-3-3--4-4-4-4-|-4--4-4-4-4-4--6---------|
   * * * * *  * * * * *  * * * *   *  * * * * *  *

|--------------------------------------------------------------------------------------------------------|
|                                          CHORUS (02:22-02:56)                                          |
|--------------------------------------------------------------------------------------------------------|

Guitars 1 and 2 (w/ dist)

   П  П  П  П  П  П  П  П   П  П  П  П  П V П V П V П V 
D|------------------------|-----------------------------|
A|------------------------|-----------------------------|
F|------------------------|-----------------------------|
C|------------------------|-----------------------------|
G|------------------------|-----------------------------|
D|-2--------2--------2----|----2--------0-0-0-0-0-0-0-0-|
A|-0--0--0--0--0--0--0--0-|-0--0--0--0------------------|
      *  *     *  *     *   *     *  *  * * * * * * * *

   П  П  П  П  П  П  П  П   П  П  П  П  П  П  П  П
D|------------------------|------------------------|
A|------------------------|------------------------|
F|------------------------|------------------------|
C|------------------------|-------------2-----6----|
G|-4--------4--------4----|----4--------0--0--4--0-|
D|-2--2--2--2--2--2--2--2-|-2--2--2--2-------------|
A|------------------------|------------------------|
      *  *     *  *     *   *     *  *     *     *

   П  П V П  П  П V П  П  П V   П  П  П V П  П  П  П  П
D|----------------------------|-------------------------|
A|----------------------------|-------------------------|
F|----------------------------|-------------------------|
C|----------------------------|-------------------------|
G|-9---------9---------9------|----9---------9-----9----|
D|-7--7-7-7--7--7-7-7--7--7-7-|-7--7--7-7-7--7--7--7--7-|
A|----------------------------|-------------------------|
      * * *     * * * *   * *   *     * * *     *     *

   П V П V П V П V П V П V П V П V   П V П V П V П V П V П V П V П V 
D|---------------------------------|---------------------------------|
A|---------------------------------|---------------------------------|
F|---------------------------------|---------------------------------|
C|---------------------------------|---------------------------------|
G|-------------7-7-7-7-7-7-9-9-9-9-|-------------5-5-5-5-5-5-7-7-7-7-|
D|---------------------------------|---------------------------------|
A|-5-5-5-5-5-5---------------------|-3-3-3-3-3-3---------------------|

   П  П  П  П  П  П  П  П   П  П  П  П  П V П V П V П V 
D|------------------------|-----------------------------|
A|------------------------|-----------------------------|
F|------------------------|-----------------------------|
C|------------------------|-----------------------------|
G|------------------------|-----------------------------|
D|-2--------2--------2----|----2--------0-0-0-0-0-0-0-0-|
A|-0--0--0--0--0--0--0--0-|-0--0--0--0------------------|
      *  *     *  *     *   *     *  *  * * * * * * * *

   П  П  П  П  П  П  П  П   П  П  П  П  П  П  П  П
D|------------------------|------------------------|
A|------------------------|------------------------|
F|------------------------|------------------------|
C|------------------------|-------------2-----6----|
G|-4--------4--------4----|----4--------0--0--4--0-|
D|-2--2--2--2--2--2--2--2-|-2--2--2--2-------------|
A|------------------------|------------------------|
      *  *     *  *     *   *     *  *     *     *

   П  П V П  П  П V П  П  П V   П  П  П V П  П  П  П  П
D|----------------------------|-------------------------|
A|----------------------------|-------------------------|
F|----------------------------|-------------------------|
C|----------------------------|-------------------------|
G|----------------------------|-------------------------|
D|-7---------7---------7------|----7---------7-----7----|
A|-5--5-5-5--5--5-5-5--5--5-5-|-5--5--5-5-5--5--5--5--5-|
      * * *     * * *     * *   *     * * *     *     *

   П V П V П V П V П V П V П V П V   П V П V П V П V П V П V П V П V 
D|---------------------------------|---------------------------------|
A|---------------------------------|---------------------------------|
F|---------------------------------|---------------------------------|
C|---------------------------------|---------------------------------|
G|-------------7-7-7-7-7-7-9-9-9-9-|-------------5-5-5-5-5-5-7-7-7-7-|
D|---------------------------------|---------------------------------|
A|-5-5-5-5-5-5---------------------|-3-3-3-3-3-3---------------------|\
                                                                       x2
   П V П V П V П V П V П V П V П V   П V П V П V П V П V П V П V П V  /
D|---------------------------------|---------------------------------|
A|---------------------------------|---------------------------------|
F|---------------------------------|---------------------------------|
C|---------------------------------|---------------------------------|
G|-------------4-4-4-4-4-4-5-5-5-5-|-------------5-5-5-5-5-5-7-7-7-7-|
D|---------------------------------|---------------------------------|
A|-2-2-2-2-2-2---------------------|-3-3-3-3-3-3---------------------|

   П V П V П V П V П V П V П V П V   П V П V П V П V П V П V П V П V
D|---------------------------------|---------------------------------|
A|---------------------------------|---------------------------------|
F|---------------------------------|---------------------------------|
C|---------------------------------|---------------------------------|
G|---------------------------------|---------------------------------|
D|-0-0-0-0-0-0-0-0-0-0-0-0-0-0-0-0-|-2-2-2-2-2-2-2-2-2-2-2-2-2-2-2-2-|
A|---------------------------------|---------------------------------|

   П V П V П V П V П V П V П V П V   П V П V П V П V П V П V П V П V
D|---------------------------------|---------------------------------|
A|---------------------------------|---------------------------------|
F|---------------------------------|---------------------------------|
C|---------------------------------|---------------------------------|
G|---------------------------------|---------------------------------|
D|-3-3-3-3-3-3-3-3-3-3-3-3-3-3-3-3-|-5-5-5-5-5-5-5-5-5-5-5-5-5-5-5-5-|
A|---------------------------------|---------------------------------|

|--------------------------------------------------------------------------------------------------------|
|                                          BRIDGE (02:56-04:00)                                          |
|--------------------------------------------------------------------------------------------------------|

Guitars 1 and 2 (w/ dist)

   П  П  П  П  П  П  П  П   П  П  П  П  П  П  V  П   П  П  П  П  П  П  П  П   П  П  П  П  П  П  V  П --|
D|------------------------|------------------------|------------------------|------------------------| |
A|------------------------|------------------------|------------------------|------------------------| |
F|------------------------|------------------------|------------------------|------------------------| |
C|------------------------|------------------------|------------------------|------------------------| |
G|------------------------|------------------------|------------------------|------------------------| |
D|------------------------|------------------------|------------------------|------------------------| |
A|-5--2--4--2--4--2--2--5-|-2--4--2--4--2--2--4--2-|-5--2--4--2--4--2--2--5-|-2--2--2--2--2--2--4--2-| |
      *     *     *  *      *     *     *               *     *     *  *      *     *     *            |
                                                                                                       |x2
   П  П  П  П  П  П  П  П   П  П  П  П  П  П  V  П   П  П  П  П  П  П  П  П   П  П  П  П               |
D|------------------------|------------------------|------------------------|------------------------| |
A|------------------------|------------------------|------------------------|------------------------| |
F|------------------------|------------------------|------------------------|------------------------| |
C|------------------------|------------------------|------------------------|------------------------| |
G|------------------------|------------------------|------------------------|------------------------| |
D|------------------------|------------------------|------------------------|------------------------| |
A|-5--2--4--2--4--2--2--5-|-2--4--2--4--2--2--4--2-|-5--2--4--2--4--2--2--5-|-2--2--2--2-------------| |
      *     *     *  *      *     *     *               *     *     *  *      *     *      ------------|

   П  П  П  П  П  П  П  П   П  П  П  П  П  П  V  П   П  П  П  П  П  П  П  П   П  П  П  П  П  П  V  П   
D|------------------------|------------------------|------------------------|------------------------|
A|------------------------|------------------------|------------------------|------------------------|
F|------------------------|------------------------|------------------------|------------------------|
C|------------------------|------------------------|------------------------|------------------------|
G|------------------------|------------------------|------------------------|------------------------|
D|------------------------|------------------------|------------------------|------------------------|
A|-5--2--4--2--4--2--2--5-|-2--4--2--4--2--2--4--2-|-5--2--4--2--4--2--2--5-|-2--2--2--2--2--2--4--2-|
      *     *     *  *      *     *     *               *     *     *  *      *     *     * 
         
   П  П  П  П  П  П  П  П   П  П  П  П  П  П  V  П   П  П  П  П  П  П  П  П   П  П  П  П  П  П  П  П
D|------------------------|------------------------|------------------------|------------------------|
A|------------------------|------------------------|------------------------|------------------------|
F|------------------------|------------------------|------------------------|------------------------|
C|------------------------|------------------------|------------------------|------------------------|
G|------------------------|------------------------|------------------------|------------------------|
D|------------------------|------------------------|------------------------|----------------4--6--2-|
A|-5--2--4--2--4--2--2--5-|-2--4--2--4--2--2--4--2-|-5--2--4--2--4--2--2--5-|-2--2--2--2--2--2--4--2-|
      *     *     *  *      *     *     *               *     *     *  *      *     *

   П   П     П   П  П     П     П   П  П  П ---------|
D|--------------------|---------------------|        |
A|--------------------|---------------------|        |
F|--------------------|---------------------|        |
C|--------------------|---------------------|        |
G|--------------------|---------------------|        |
D|-7---6-----6---4--7-|---6-----6---4--6--4-|        |
A|-5---4-----4---2--5-|---4-----4---2--4--2-|        |
                                                     |
   П   П     П   П  П     П     П   П V П V П V      |
D|--------------------|-------------------------|    |
A|--------------------|-------------------------|    |
F|--------------------|-------------------------|    |
C|--------------------|-------------------------|    |
G|--------------------|-------------------------|    |
D|-7---6-----6---4--7-|---4-----4---------------|    |
A|-5---4-----4---2--5-|---2-----2---2-2-2-2-2-2-|    |
                                    * * * * * *      |
                                                     | x2
   П   П     П   П  П     П     П   П  П  П          |
D|--------------------|---------------------|        |
A|--------------------|---------------------|        |
F|--------------------|---------------------|        |
C|--------------------|---------------------|        |
G|--------------------|---------------------|        |
D|-7---6-----6---4--7-|---6-----6---4--6--4-|        |
A|-5---4-----4---2--5-|---4-----4---2--4--2-|        |
                                                     |
   П   П     П   П  П     П     П   П  П  П          |
D|--------------------|---------------------|        |
A|--------------------|---------------------|        |
F|--------------------|---------------------|        |
C|--------------------|---------------------|        |
G|--------------------|---------------------|        |
D|-7---6-----6---4--7-|---4-----4---4--6--4-|        |
A|-5---4-----4---2--5-|---2-----2---2--4--2-|        |
                                           ----------|

   П V П V П  П V П V П  П  П   П  П V П V П  П V П V П  П
D|----------------------------|----------------------------|
A|----------------------------|----------------------------|
F|----------------------------|----------------------------| x3
C|----------------------------|----------------------------|
G|----------------------------|----------------------------|
D|----------------------------|----------------------------|
A|-3-3-3-3-3--3-3-3-3-3--3--3-|-3--3-3-3-3-3--3-3-3-3-3--3-|
   * * * * *  * * * * *  *  *   *  * * * * *  * * * * *  *

   П V П V П  П V П V П  П  П   П  П V П V П  П
D|----------------------------|-----------------------|
A|----------------------------|-----------------------|
F|----------------------------|-----------------------|
C|----------------------------|-----------------------|
G|----------------------------|-----------------------|
D|----------------------------|-----------------------|
A|-3-3-3-3-3--3-3-3-3-3--3--3-|-3--3-3-3-3-3--3-------|
   * * * * *  * * * * *  *  *   *  * * * * *  *

|--------------------------------------------------------------------------------------------------------|
|                                         CHORUS 2 (04:00-05:05)                                         |
|--------------------------------------------------------------------------------------------------------|

I. Guitars 1 and 2 (w/ dist) - Fade in

   П  П  П  П  П  П  П  П   П  П  П  П  П V П V П V П V 
D|------------------------|-----------------------------|
A|------------------------|-----------------------------|
F|------------------------|-----------------------------|
C|------------------------|-----------------------------|
G|------------------------|-----------------------------|
D|-2--------2--------2----|----2--------0-0-0-0-0-0-0-0-|
A|-0--0--0--0--0--0--0--0-|-0--0--0--0------------------|
      *  *     *  *     *   *     *  *  * * * * * * * *

   П  П  П  П  П  П  П  П   П  П  П  П  П  П  П  П
D|------------------------|------------------------|
A|------------------------|------------------------|
F|------------------------|------------------------|
C|------------------------|-------------2-----6----|
G|-4--------4--------4----|----4--------0--0--4--0-|
D|-2--2--2--2--2--2--2--2-|-2--2--2--2-------------|
A|------------------------|------------------------|
      *  *     *  *     *   *     *  *     *     *

   П  П V П  П  П V П  П  П V   П  П  П V П  П  П  П  П
D|----------------------------|-------------------------|
A|----------------------------|-------------------------|
F|----------------------------|-------------------------|
C|----------------------------|-------------------------|
G|-9---------9---------9------|----9---------9-----9----|
D|-7--7-7-7--7--7-7-7--7--7-7-|-7--7--7-7-7--7--7--7--7-|
A|----------------------------|-------------------------|
      * * *     * * * *   * *   *     * * *     *     *

   П V П V П V П V П V П V П V П V   П V П V П V П V П
D|---------------------------------|---------------------------------|
A|---------------------------------|---------------------------------|
F|---------------------------------|---------------------------------|
C|---------------------------------|---------------------------------|
G|-------------7-7-7-7-7-7-9-9-9-9-|---------------------------------|
D|---------------------------------|---------------------------------|
A|-5-5-5-5-5-5---------------------|-3-3-3-3-3-3-3-3-3---------------|

II. Guitars 1 and 2 (w/ dist)

   П  П  П  П  П  П  П  П   П  П  П  П  П V П V П V П V --------------------|
D|------------------------|-----------------------------|                   |
A|------------------------|-----------------------------|                   |
F|------------------------|-----------------------------|                   |
C|------------------------|-----------------------------|                   |
G|------------------------|-----------------------------|                   |
D|-2--------2--------2----|----2--------0-0-0-0-0-0-0-0-|                   |
A|-0--0--0--0--0--0--0--0-|-0--0--0--0------------------|                   |
      *  *     *  *     *   *     *  *  * * * * * * * *                     |
                                                                            |
   П  П  П  П  П  П  П  П   П  П  П  П  П  П  П  П                          |
D|------------------------|------------------------|                        |
A|------------------------|------------------------|                        |
F|------------------------|------------------------|                        |
C|------------------------|-------------2-----6----|                        |
G|-4--------4--------4----|----4--------0--0--4--0-|                        |
D|-2--2--2--2--2--2--2--2-|-2--2--2--2-------------|                        |
A|------------------------|------------------------|                        |
      *  *     *  *     *   *     *  *     *     *                          |
                                                                            |
   П  П V П  П  П V П  П  П V   П  П  П V П  П  П  П  П                     |
D|----------------------------|-------------------------|                   |
A|----------------------------|-------------------------|                   |
F|----------------------------|-------------------------|                   |
C|----------------------------|-------------------------|                   |
G|-9---------9---------9------|----9---------9-----9----|                   |
D|-7--7-7-7--7--7-7-7--7--7-7-|-7--7--7-7-7--7--7--7--7-|                   |
A|----------------------------|-------------------------|                   |
      * * *     * * * *   * *   *     * * *     *     *                     |
                                                                            |
   П V П V П V П V П V П V П V П V   П V П V П V П V П V П V П V П V        |
D|---------------------------------|---------------------------------|      |
A|---------------------------------|---------------------------------|      |
F|---------------------------------|---------------------------------|      |
C|---------------------------------|---------------------------------|      |
G|-------------7-7-7-7-7-7-9-9-9-9-|-------------5-5-5-5-5-5-7-7-7-7-|      |
D|---------------------------------|---------------------------------|      |
A|-5-5-5-5-5-5---------------------|-3-3-3-3-3-3---------------------|      |
                                                                            | x2
   П  П  П  П  П  П  П  П   П  П  П  П  П V П V П V П V                     |
D|------------------------|-----------------------------|                   |
A|------------------------|-----------------------------|                   |
F|------------------------|-----------------------------|                   |
C|------------------------|-----------------------------|                   |
G|------------------------|-----------------------------|                   |
D|-2--------2--------2----|----2--------0-0-0-0-0-0-0-0-|                   |
A|-0--0--0--0--0--0--0--0-|-0--0--0--0------------------|                   |
      *  *     *  *     *   *     *  *  * * * * * * * *                     |
                                                                            |
   П  П  П  П  П  П  П  П   П  П  П  П  П  П  П  П                          |
D|------------------------|------------------------|                        |
A|------------------------|------------------------|                        |
F|------------------------|------------------------|                        |
C|------------------------|-------------2-----6----|                        |
G|-4--------4--------4----|----4--------0--0--4--0-|                        |
D|-2--2--2--2--2--2--2--2-|-2--2--2--2-------------|                        |
A|------------------------|------------------------|                        |
      *  *     *  *     *   *     *  *     *     *                          |
                                                                            |
   П  П V П  П  П V П  П  П V   П  П  П V П  П  П  П  П                     |
D|----------------------------|-------------------------|                   |
A|----------------------------|-------------------------|                   |
F|----------------------------|-------------------------|                   |
C|----------------------------|-------------------------|                   |
G|----------------------------|-------------------------|                   |
D|-7---------7---------7------|----7---------7-----7----|                   |
A|-5--5-5-5--5--5-5-5--5--5-5-|-5--5--5-5-5--5--5--5--5-|                   |
      * * *     * * *     * *   *     * * *     *     *                     |
                                                                            |
   П V П V П V П V П V П V П V П V   П V П V П V П V П V П V П V П V        |
D|---------------------------------|---------------------------------|      |
A|---------------------------------|---------------------------------|      |
F|---------------------------------|---------------------------------|      |
C|---------------------------------|---------------------------------|      |
G|-------------7-7-7-7-7-7-9-9-9-9-|-------------5-5-5-5-5-5-7-7-7-7-|      |
D|---------------------------------|---------------------------------|      |
A|-5-5-5-5-5-5---------------------|-3-3-3-3-3-3---------------------|      |
                                                                   ---------|

   П V П V П V П V П V П V П V П V   П V П V П V П V П V П V П V П V
D|---------------------------------|---------------------------------|
A|---------------------------------|---------------------------------|
F|---------------------------------|---------------------------------|
C|---------------------------------|---------------------------------|
G|-------------4-4-4-4-4-4-5-5-5-5-|-------------5-5-5-5-5-5-7-7-7-7-|
D|---------------------------------|---------------------------------|
A|-2-2-2-2-2-2---------------------|-3-3-3-3-3-3---------------------|

   П V П V П V П V П V П V П V П V   П V П V П V П V П V П V П V П V
D|---------------------------------|---------------------------------|
A|---------------------------------|---------------------------------|
F|---------------------------------|---------------------------------|
C|---------------------------------|---------------------------------|
G|-------------7-7-7-7-7-7-9-9-9-9-|-------------5-5-5-5-5-5-7-7-7-7-|
D|---------------------------------|---------------------------------|
A|-5-5-5-5-5-5---------------------|-3-3-3-3-3-3---------------------|

   П V П V П V П V П V П V П V П V   П V П V П V П V П V П V П V П V
D|---------------------------------|---------------------------------|
A|---------------------------------|---------------------------------|
F|---------------------------------|---------------------------------|
C|---------------------------------|---------------------------------|
G|-------------4-4-4-4-4-4-5-5-5-5-|-------------5-5-5-5-5-5-7-7-7-7-|
D|---------------------------------|---------------------------------|
A|-2-2-2-2-2-2---------------------|-3-3-3-3-3-3---------------------|

   П V П V П V П V П V П V П V П V   П V П V П V П V П V П V П V П V
D|---------------------------------|---------------------------------|
A|---------------------------------|---------------------------------|
F|---------------------------------|---------------------------------|
C|---------------------------------|---------------------------------|
G|---------------------------------|---------------------------------|
D|-0-0-0-0-0-0-0-0-0-0-0-0-0-0-0-0-|-2-2-2-2-2-2-2-2-2-2-2-2-2-2-2-2-|
A|---------------------------------|---------------------------------|

   П V П V П V П V П V П V П V П V   П V П V П V П V П  П V П  П
D|---------------------------------|------------------------------|
A|---------------------------------|------------------------------|
F|---------------------------------|------------------------------|
C|---------------------------------|------------------------------|
G|---------------------------------|------------------------------|
D|-3-3-3-3-3-3-3-3-3-3-3-3-3-3-3-3-|-5-5-5-5-5-5-5-5-5--5-5-5--5--|
A|---------------------------------|------------------------------|
                                                     *  * * *  *

|--------------------------------------------------------------------------------------------------------|
|                                          OUTRO (05:05-05:28)                                           |
|--------------------------------------------------------------------------------------------------------|

Guitars 1 and 2 (w/ dist)

   П   П V П V П  П   П   П   П V П V П  П   П -------------|
D|----------------------|----------------------|            |
A|----------------------|----------------------|            |
F|----------------------|----------------------|            |
C|----------------------|----------------------|            |
G|----------------------|----------------------|            |
D|-7--------------7-----|-5--------------5-----|            |
A|-5---5-5-5-5-5--5---5-|-3---3-3-3-3-3--3---3-|            |
       * * * * *      *       * * * * *      *              |
                                                            | x3
   П   П V П V П  П   П   П   П V П V П V П V П V П V       |
D|----------------------|-----------------------------|     |
A|----------------------|-----------------------------|     |
F|----------------------|-----------------------------|     |
C|----------------------|-----------------------------|     |
G|----------------------|-----------------------------|     |
D|-5--------------5-----|-5---------------------------|     |
A|-2---2-2-2-2-2--2---2-|-3---3-3-3-3-3-3-3-3-3-3-3-3-|     |
       * * * * *      *       * * * * * * * * * * * * ------|

   П   П V П V П  П   П   П   П V П V П  П   П 
D|----------------------|----------------------|
A|----------------------|----------------------|
F|----------------------|----------------------|
C|----------------------|----------------------|
G|----------------------|----------------------|
D|-7--------------7-----|-5--------------5-----|
A|-5---5-5-5-5-5--5---5-|-3---3-3-3-3-3--3---3-|
       * * * * *      *       * * * * *      *

   П   П V П V П  П   П   П
D|----------------------|----------------------|
A|----------------------|----------------------|
F|----------------------|----------------------|
C|----------------------|----------------------|
G|----------------------|----------------------|
D|-5--------------5-----|-5--------------------|
A|-2---2-2-2-2-2--2---2-|-3--------------------|
       * * * * *      *      

**********************************************************************************************************
*                                            2. ANODIZED                                                 *
**********************************************************************************************************

|--------------------------------------------------------------------------------------------------------|
|                                          INTRO (00:00-00:39)                                           |
|--------------------------------------------------------------------------------------------------------|

Guitars 1 and 2 (w/ dist)

          П   П   П V   П V П V  П     П V     П V   П V П V  П     П V
 E|---------|------------------------------|----------------------------|
 B|---------|------------------------------|----------------------------|
 G|---------|------------------------------|----------------------------|
 D|---------|------------------------------|----------------------------|
 A|---------|------------------------------|----------------------------|
 E|---------|------------------------------|----------------------------|
 B|---------|------------------------------|----------------------------|
F#|-------1-|-1---1-1---1-1-1-3--1-----1-1-|---1-1---1-1-1-3--1-----1-1-|
              *   * *   * * * *  *     * *     * *   * * * *  *     * *

      П V   П V П V  П  П  П     П   П   П  П
 E|--------------------------|-----------------|
 B|--------------------------|-----------------|
 G|--------------------------|-----------------|
 D|--------------------------|-----------------|
 A|--------------------------|-----------------|
 E|--------------------------|-----------------|
 B|---------------------5--6-|---5---3---5--6--|
F#|---1-1---1-1-1-3--1--3--4-|---3---1---3--4--|
      * *   * * * *  *  *                *

    П   П V   П V П V  П     П V     П V   П V П V  П     П V ----|
 E|------------------------------|----------------------------|   |
 B|------------------------------|----------------------------|   |
 G|------------------------------|----------------------------|   |
 D|------------------------------|----------------------------|   |
 A|------------------------------|----------------------------|   |
 E|------------------------------|----------------------------|   |
 B|------------------------------|----------------------------|   |
F#|-1---1-1---1-1-1-3--1-----1-1-|---1-1---1-1-1-3--1-----1-1-|   |
    *   * *   * * * *  *     * *     * *   * * * *  *     * *     |
                                                                  | x3  
      П V   П V П V  П     П V     П V    П V П V П V П V П V     |
 E|----------------------------|------------------------------|   |
 B|----------------------------|------------------------------|   |
 G|----------------------------|------------------------------|   |
 D|----------------------------|------------------------------|   |
 A|----------------------------|------------------------------|   |
 E|----------------------------|------------------------------|   |
 B|----------------------------|------------------------------|   |
F#|---1-1---1-1-1-3--1-----1-1-|---1-1----1-1-3-3-1-1-4-4-3-3-|   |
      * *   * * * *  *     * *     * *    * * * * * * * * * * ----|

    П   П V   П V П V  П     П V     П V   П V П V  П     П V
 E|------------------------------|----------------------------|
 B|------------------------------|----------------------------|
 G|------------------------------|----------------------------|
 D|------------------------------|----------------------------|
 A|------------------------------|----------------------------|
 E|------------------------------|----------------------------|
 B|------------------------------|----------------------------|
F#|-1---1-1---1-1-1-3--1-----1-1-|---1-1---1-1-1-3--1-----1-1-|
    *   * *   * * * *  *     * *     * *   * * * *  *     * *  

      П V   П V П V  П  П  П     П    П    П  П  П
 E|--------------------------|----------------------|
 B|--------------------------|----------------------|
 G|--------------------------|----------------------|
 D|--------------------------|----------------------|
 A|--------------------------|----------------------|
 E|--------------------------|----------------------|
 B|---------------------5--6-|---5----3----5--6--5--|
F#|---1-1---1-1-1-3--1--3--4-|---3----1----3--4--3--|
      * *   * * * *  *  *                  *  *  *

|--------------------------------------------------------------------------------------------------------|
|                                          VERSE (00:39-00:52)                                           |
|--------------------------------------------------------------------------------------------------------|

Guitars 1 and 2 (w/ dist)

    П    П V П V П  П  П  П      П V П V П  П  П  П      П V П V П  П  П  П      П V П V П  П  П  
 E|-------------------------|-----------------------|-----------------------|--------------------|
 B|-------------------------|-----------------------|-----------------------|--------------------|
 G|-------------------------|-----------------------|-----------------------|--------------------|
 D|-------------------------|-----------------------|-----------------------|--------------------| x2
 A|-------------------------|-----------------------|-----------------------|--------------------|
 E|-------------------------|-----------------------|-----------------------|--------------------|
 B|-------------------------|-----------------------|-----------------------|------------------6-|
F#|-1----1-1-1-1-3--1--3--1-|----1-1-1-1-3--1--3--1-|----1-1-1-1-3--1--3--1-|----1-1-1-1-3--1--4-|
    *    * * * * *  *  *  *      * * * * *  *  *  *      * * * * *  *  *  *      * * * * *  * 

|--------------------------------------------------------------------------------------------------------|
|                                        PRE-CHORUS (00:52-01:06)                                        |
|--------------------------------------------------------------------------------------------------------|

Guitars 1 and 2 (w/ dist)

    П  П V П V П  П  П  П    П  П V П V П  П  П  П    П  П V П V П  П  П  П    П V П V П   П V П V П
 E|-----------------------|------------------------|------------------------|------------------------|
 B|-----------------------|------------------------|------------------------|------------------------|
 G|-----------------------|------------------------|------------------------|------------------------|
 D|-----------------------|------------------------|------------------------|------------------------|
 A|-----------------------|------------------------|------------------------|------------------------|
 E|-----------------------|------------------------|------------------------|------------------------|
 B|-5-------------------6-|--6-------------------8-|--8-------------------9-|----------9-----------5-|
F#|-3--3-3-3-3-3--3--3--4-|--4--4-4-4-4-4--4--4--6-|--6--6-6-6-6-6--6--6--7-|--7-7-7-7-6---6-6-6-6-3-|
       * * * * *  *  *          * * * * *  *  *          * * * * *  *  *       * * * *     * * * *

    П  П V П V П  П  П  П    П  П V П V П  П  П  П    П  П V П V П  П  П  П    П V П V П   П V П V П 
 E|-----------------------|------------------------|------------------------|------------------------|
 B|-----------------------|------------------------|------------------------|------------------------|
 G|-----------------------|------------------------|------------------------|------------------------|
 D|-----------------------|------------------------|------------------------|------------------------|
 A|-----------------------|------------------------|------------------------|------------------------|
 E|-----------------------|------------------------|------------------------|------------------------|
 B|-5-------------------6-|--6-------------------8-|--8-------------------9-|----------9-----------9-|
F#|-3--3-3-3-3-3--3--3--4-|--4--4-4-4-4-4--4--4--6-|--6--6-6-6-6-6--6--6--7-|--7-7-7-7-6---6-6-6-6-7-|
       * * * * *  *  *          * * * * *  *  *          * * * * *  *  *       * * * *     * * * * 

     П V П V П   П V П V П
 E|------------------------|
 B|------------------------|
 G|------------------------|
 D|------------------------|
 A|------------------------|
 E|------------------------|
 B|----------9-----------4-|
F#|--7-7-7-7-6---6-6-6-6-2-|
     * * * *     * * * *

|--------------------------------------------------------------------------------------------------------|
|                                          CHORUS (01:06-01:34)                                          |
|--------------------------------------------------------------------------------------------------------|

Guitars 1 and 2 (w/ dist)

      П  V   П  V   П      П  V   П  V   П      П  V   П  V   П      П  П  П   П  П  П
 E|--------------------|--------------------|--------------------|----------------------|
 B|--------------------|--------------------|--------------------|----------------------|
 G|--------------------|--------------------|--------------------|----------------------|
 D|------1------1------|--------------------|--------------------|----------------------|
 A|---2------2---------|------6------6------|------6------6------|----------------------|
 E|--------------------|---7------7---------|---7------7---------|----------------------|
 B|-----------------7--|-----------------9--|-----------------7--|---7-----7---7-----4--|
F#|-----------------5--|-----------------7--|-----------------5--|---5--5--4---4--4--2--|
                                                                        *         *

      П  V   П  V   П      П  V   П  V   П      П  V   П  V   П      П V П V П   П V П V П
 E|--------------------|--------------------|--------------------|--------------------------|
 B|--------------------|--------------------|--------------------|--------------------------|
 G|--------------------|--------------------|--------------------|--------------------------|
 D|------1------1------|--------------------|--------------------|--------------------------|
 A|---2------2---------|------6------6------|------6------6------|--------------------------|
 E|--------------------|---7------7---------|---7------7---------|--------------------------|
 B|-----------------7--|-----------------9--|-----------------9--|-----------9-----------4--|
F#|-----------------5--|-----------------7--|-----------------7--|---7-7-7-7-6---6-6-6-6-2--|
                                                                     * * * *     * * * *

      П  V   П  V   П      П  V   П  V   П      П  V   П  V   П      П  П  П   П  П  П
 E|--------------------|--------------------|--------------------|----------------------|
 B|--------------------|--------------------|--------------------|----------------------|
 G|--------------------|--------------------|--------------------|----------------------|
 D|------1------1------|--------------------|--------------------|----------------------|
 A|---2------2---------|------6------6------|------6------6------|----------------------|
 E|--------------------|---7------7---------|---7------7---------|----------------------|
 B|-----------------7--|-----------------9--|-----------------7--|---7-----7---7-----4--|
F#|-----------------5--|-----------------7--|-----------------5--|---5--5--4---4--4--2--|
                                                                        *         *

      П  V   П  V   П      П  V   П  V   П      П  П V П V П V П V П  П      П  П V П V П V П  П  П
 E|--------------------|--------------------|----------------------------|---------------------------|
 B|--------------------|--------------------|----------------------------|---------------------------|
 G|--------------------|--------------------|----------------------------|---------------------------|
 D|------1------1------|--------------------|----------------------------|---------------------------|
 A|---2------2---------|------6------6------|----------------------------|---------------------------|
 E|--------------------|---7------7---------|----------------------------|---------------------------|
 B|-----------------7--|-----------------9--|---9------------------9--9--|---9--------------9--9--9--|
F#|-----------------5--|-----------------7--|---7--7-7-7-7-7-7-7-7-7--6--|---6--6-6-6-6-6-6-7--6--7--|
                                                   * * * * * * * *              * * * * * * *  * 

      П  П V П V П V П V П  П      П  П V П V П V П  П  П
 E|----------------------------|---------------------------|
 B|----------------------------|---------------------------|
 G|----------------------------|---------------------------|
 D|----------------------------|---------------------------|
 A|----------------------------|---------------------------|
 E|----------------------------|---------------------------|
 B|---9------------------9--9--|---9--------------9--9-----|
F#|---7--7-7-7-7-7-7-7-7-7--6--|---6--6-6-6-6-6-6-7--6--1--|
         * * * * * * * *              * * * * * * *  *  *

|--------------------------------------------------------------------------------------------------------|
|                                       POST-CHORUS (01:34-01:47)                                        |
|--------------------------------------------------------------------------------------------------------|

Guitars 1 and 2 (w/ dist)

      П V   П V П V  П     П V     П V   П V П V  П     П V
 E|----------------------------|----------------------------|
 B|----------------------------|----------------------------|
 G|----------------------------|----------------------------|
 D|----------------------------|----------------------------|
 A|----------------------------|----------------------------|
 E|----------------------------|----------------------------|
 B|----------------------------|----------------------------|
F#|---1-1---1-1-1-3--1-----1-1-|---1-1---1-1-1-3--1-----1-1-|
      * *   * * * *  *     * *     * *   * * * *  *     * *

      П V   П V П V  П     П V     П V    П V П V П V П V П V 
 E|----------------------------|------------------------------|
 B|----------------------------|------------------------------|
 G|----------------------------|------------------------------|
 D|----------------------------|------------------------------|
 A|----------------------------|------------------------------|
 E|----------------------------|------------------------------|
 B|----------------------------|------------------------------|
F#|---1-1---1-1-1-3--1-----1-1-|---1-1----1-1-3-3-1-1-4-4-3-3-|
      * *   * * * *  *     * *     * *    * * * * * * * * * *

    П   П V   П V П V  П     П V     П V   П V П V  П     П V
 E|------------------------------|----------------------------|
 B|------------------------------|----------------------------|
 G|------------------------------|----------------------------|
 D|------------------------------|----------------------------|
 A|------------------------------|----------------------------|
 E|------------------------------|----------------------------|
 B|------------------------------|----------------------------|
F#|-1---1-1---1-1-1-3--1-----1-1-|---1-1---1-1-1-3--1-----1-1-|
    *   * *   * * * *  *     * *     * *   * * * *  *     * *  

      П V   П V П V  П  П  П     П    П    П  П  П
 E|--------------------------|----------------------|
 B|--------------------------|----------------------|
 G|--------------------------|----------------------|
 D|--------------------------|----------------------|
 A|--------------------------|----------------------|
 E|--------------------------|----------------------|
 B|---------------------5--6-|---5----3----5--6--5--|
F#|---1-1---1-1-1-3--1--3--4-|---3----1----3--4--3--|
      * *   * * * *  *  *                  *  *  *

|--------------------------------------------------------------------------------------------------------|
|                                         VERSE 2 (01:47-01:59)                                          |
|--------------------------------------------------------------------------------------------------------|
                                              same as VERSE
|--------------------------------------------------------------------------------------------------------|
|                                       PRE-CHORUS 2 (01:59-02:13)                                       |
|--------------------------------------------------------------------------------------------------------|
                                           same as PRE-CHORUS
|--------------------------------------------------------------------------------------------------------|
|                                         CHORUS 2 (02:13-02:48)                                         |
|--------------------------------------------------------------------------------------------------------|

Guitars 1 and 2 (w/ dist)

      П  V   П  V   П      П  V   П  V   П      П  V   П  V   П      П  П  П   П  П  П
 E|--------------------|--------------------|--------------------|----------------------|
 B|--------------------|--------------------|--------------------|----------------------|
 G|--------------------|--------------------|--------------------|----------------------|
 D|------1------1------|--------------------|--------------------|----------------------|
 A|---2------2---------|------6------6------|------6------6------|----------------------|
 E|--------------------|---7------7---------|---7------7---------|----------------------|
 B|-----------------7--|-----------------9--|-----------------7--|---7-----7---7-----4--|
F#|-----------------5--|-----------------7--|-----------------5--|---5--5--4---4--4--2--|
                                                                        *         *

      П  V   П  V   П      П  V   П  V   П      П  V   П  V   П      П V П V П   П V П V П
 E|--------------------|--------------------|--------------------|--------------------------|
 B|--------------------|--------------------|--------------------|--------------------------|
 G|--------------------|--------------------|--------------------|--------------------------|
 D|------1------1------|--------------------|--------------------|--------------------------|
 A|---2------2---------|------6------6------|------6------6------|--------------------------|
 E|--------------------|---7------7---------|---7------7---------|--------------------------|
 B|-----------------7--|-----------------9--|-----------------9--|-----------9-----------4--|
F#|-----------------5--|-----------------7--|-----------------7--|---7-7-7-7-6---6-6-6-6-2--|
                                                                     * * * *     * * * *

      П  V   П  V   П      П  V   П  V   П      П  V   П  V   П      П  П  П   П  П  П
 E|--------------------|--------------------|--------------------|----------------------|
 B|--------------------|--------------------|--------------------|----------------------|
 G|--------------------|--------------------|--------------------|----------------------|
 D|------1------1------|--------------------|--------------------|----------------------|
 A|---2------2---------|------6------6------|------6------6------|----------------------|
 E|--------------------|---7------7---------|---7------7---------|----------------------|
 B|-----------------7--|-----------------9--|-----------------7--|---7-----7---7-----4--|
F#|-----------------5--|-----------------7--|-----------------5--|---5--5--4---4--4--2--|
                                                                        *         *

      П  V   П  V   П      П  V   П  V   П      П  П V П V П V П V П  П      П  П V П V П V П  П  П
 E|--------------------|--------------------|----------------------------|---------------------------|
 B|--------------------|--------------------|----------------------------|---------------------------|
 G|--------------------|--------------------|----------------------------|---------------------------|
 D|------1------1------|--------------------|----------------------------|---------------------------|
 A|---2------2---------|------6------6------|----------------------------|---------------------------|
 E|--------------------|---7------7---------|----------------------------|---------------------------|
 B|-----------------7--|-----------------9--|---9------------------9--9--|---9--------------9--9--9--|
F#|-----------------5--|-----------------7--|---7--7-7-7-7-7-7-7-7-7--6--|---6--6-6-6-6-6-6-7--6--7--|
                                                   * * * * * * * *              * * * * * * *  *  

      П  П V П V П V П V П  П      П  П V П V П V П  П  П
 E|----------------------------|---------------------------|
 B|----------------------------|---------------------------|
 G|----------------------------|---------------------------|
 D|----------------------------|---------------------------| x2
 A|----------------------------|---------------------------|
 E|----------------------------|---------------------------|
 B|---9------------------9--9--|---9--------------9--9--9--|
F#|---7--7-7-7-7-7-7-7-7-7--6--|---6--6-6-6-6-6-6-7--6--7--|
         * * * * * * * *              * * * * * * *  *  *

      П  П V П V П V П V П V П V   П V П V П V П V П  П  П  П
 E|------------------------------|-----------------------------|
 B|------------------------------|-----------------------------|
 G|------------------------------|-----------------------------|
 D|------------------------------|-----------------------------|
 A|------------------------------|-----------------------------|
 E|------------------------------|-----------------------------|
 B|---9--------------------------|-----------------8--9--8-----|
F#|---7--7-7-7-7-7-7-7-7-7-7-7-7-|-7-7-7-7-7-7-7-7-6--7--6--5~~|
         * * * * * * * * * * * *   * * * * * * * * *  *  *

|--------------------------------------------------------------------------------------------------------|
|                                          BRIDGE (02:48-03:21)                                          |
|--------------------------------------------------------------------------------------------------------|

Guitars 1 and 2 (w/ dist)

     П  П V П V П  П   П    П  П V П V П  П   П    П  П V П V П  П   П    П  П V П V П V П V П V П V 
 E|----------------------|----------------------|----------------------|-----------------------------|
 B|----------------------|----------------------|----------------------|-----------------------------|
 G|----------------------|----------------------|----------------------|-----------------------------|
 D|----------------------|----------------------|----------------------|-----------------------------|
 A|----------------------|----------------------|----------------------|-----------------------------|
 E|----------------------|----------------------|----------------------|-----------------------------|
 B|----------------------|----------------------|----------------------|-----------------------------|
F#|~~4--4-4-4-4-5--4---5~|~~4--4-4-4-4-5--4---5~|~~4--4-4-4-4-5--4---5~|~~4--4-4-4-4-4-4-4-4-4-4-4-4-|
     *  * * * *             *  * * * *             *  * * * *             *  * * * * * * * * * * * *

    П   П V П V П  П   П    П  П V П V П  П   П    П  П V П V П  П   П    П  П V П V П V П V П V П V 
 E|----------------------|----------------------|----------------------|-----------------------------|
 B|----------------------|----------------------|----------------------|-----------------------------|
 G|----------------------|----------------------|----------------------|-----------------------------|
 D|----------------------|----------------------|----------------------|-----------------------------|
 A|----------------------|----------------------|----------------------|-----------------------------|
 E|----------------------|----------------------|----------------------|-----------------------------|
 B|----------------------|----------------------|----------------------|-----------------------------|
F#|-5~~~4-4-4-4-5--4---5~|~~4--4-4-4-4-5--4---5~|~~4--4-4-4-4-5--4---5~|~~4--4-4-4-4-4-4-4-4-4-4-4-4-|
        * * * *             *  * * * *             *  * * * *             *  * * * * * * * * * * * *

    П   П V П V П  П   П    П  П V П V П  П   П    П  П V П V П  П   П    П  П V П V П V П V П V П V 
 E|----------------------|----------------------|----------------------|-----------------------------|
 B|----------------------|----------------------|----------------------|-----------------------------|
 G|----------------------|----------------------|----------------------|-----------------------------|
 D|----------------------|----------------------|----------------------|-----------------------------|
 A|----------------------|----------------------|----------------------|-----------------------------|
 E|----------------------|----------------------|----------------------|-----------------------------|
 B|-7-----------7--6---7-|-------------7--6---7-|-------------7--6---7-|-----------------------------|
F#|-5---4-4-4-4-5--4---5-|--4--4-4-4-4-5--4---5-|--4--4-4-4-4-5--4---5-|--4--4-4-4-4-4-4-4-4-4-4-4-4-|
        * * * *             *  * * * *             *  * * * *             *  * * * * * * * * * * * *

    П   П V П V П  П   П    П  П V П V П  П   П    П  П V П V П  П   П    П  П V П V П V П V П V П
 E|----------------------|----------------------|----------------------|-----------------------------|
 B|----------------------|----------------------|----------------------|-----------------------------|
 G|----------------------|----------------------|----------------------|-----------------------------|
 D|----------------------|----------------------|----------------------|-----------------------------|
 A|----------------------|----------------------|----------------------|-----------------------------|
 E|----------------------|----------------------|----------------------|-----------------------------|
 B|-7-----------7--6---7-|-------------7--6---7-|-------------7--6---7-|-------------------------6---|
F#|-5---4-4-4-4-5--4---5-|--4--4-4-4-4-5--4---5-|--4--4-4-4-4-5--4---5-|--4--4-4-4-4-4-4-4-4-4-4-4---|
        * * * *             *  * * * *             *  * * * *             *  * * * * * * * * * *

      П  П V П V П  П    П      П  П V П V П  П    П      П  П V П V П  П    П
 E|-------------------------|-------------------------|-------------------------|
 B|-------------------------|-------------------------|-------------------------|
 G|-------------------------|-------------------------|-------------------------|
 D|-------------------------|-------------------------|-------------------------|
 A|-------------------------|-------------------------|-------------------------|
 E|-------------------------|-------------------------|-------------------------|
 B|----------------------6--|----------------------6--|----------------------6--|
F#|---4--4-4-4-4-5--4----4--|---4--4-4-4-4-5--4----4--|---4--4-4-4-4-5--4----4--|
      *  * * * *                *  * * * *                *  * * * *

       П  П  П  П  П  П  П    П V П V П V П V П V П V П V П
 E|-------------------------|--------------------------------|
 B|-------------------------|--------------------------------|
 G|-------------------------|--------------------------------|
 D|-------------------------|--------------------------------|
 A|-------------------------|--------------------------------|
 E|-------------------------|--------------------------------|
 B|-------------------------|-----------------------------4--|
F#|----4--4--4--4--4--4--4--|-4-4-4-4-4-4-4-4-4-4-4-4-4-4-2--|
       *  *  *  *  *  *  *    * * * * * * * * * * * * * *

|--------------------------------------------------------------------------------------------------------|
|                                         CHORUS 3 (03:21-04:20)                                         |
|--------------------------------------------------------------------------------------------------------|

Guitars 1 and 2 (w/ dist)

      П  V   П  V   П      П  V   П  V   П      П  V   П  V   П      П  П  П   П  П  П ---------|
 E|--------------------|--------------------|--------------------|----------------------|       |
 B|--------------------|--------------------|--------------------|----------------------|       |
 G|--------------------|--------------------|--------------------|----------------------|       |
 D|------1------1------|--------------------|--------------------|----------------------|       |
 A|---2------2---------|------6------6------|------6------6------|----------------------|       |
 E|--------------------|---7------7---------|---7------7---------|----------------------|       |
 B|-----------------7--|-----------------9--|-----------------7--|---7-----7---7-----4--|       |
F#|-----------------5--|-----------------7--|-----------------5--|---5--5--4---4--4--2--|       |
                                                                        *         *             |
                                                                                                | x3
      П  V   П  V   П      П  V   П  V   П      П  V   П  V   П      П V П V П   П V П V П      |
 E|--------------------|--------------------|--------------------|--------------------------|   |
 B|--------------------|--------------------|--------------------|--------------------------|   |
 G|--------------------|--------------------|--------------------|--------------------------|   |
 D|------1------1------|--------------------|--------------------|--------------------------|   |
 A|---2------2---------|------6------6------|------6------6------|--------------------------|   |
 E|--------------------|---7------7---------|---7------7---------|--------------------------|   |
 B|-----------------7--|-----------------9--|-----------------9--|-----------9-----------4--|   |
F#|-----------------5--|-----------------7--|-----------------7--|---7-7-7-7-6---6-6-6-6-2--|   |
                                                                     * * * *     * * * *  ------|

      П  V   П  V   П      П  V   П  V   П      П  V   П  V   П      П  П  П   П  П  П
 E|--------------------|--------------------|--------------------|----------------------|
 B|--------------------|--------------------|--------------------|----------------------|
 G|--------------------|--------------------|--------------------|----------------------|
 D|------1------1------|--------------------|--------------------|----------------------|
 A|---2------2---------|------6------6------|------6------6------|----------------------|
 E|--------------------|---7------7---------|---7------7---------|----------------------|
 B|-----------------7--|-----------------9--|-----------------7--|---7-----7---7-----4--|
F#|-----------------5--|-----------------7--|-----------------5--|---5--5--4---4--4--2--|
                                                                        *         *

      П  V   П  V   П      П  V   П  V   П      П  П V П V П V П V П  П      П  П V П V П V П  П  П
 E|--------------------|--------------------|----------------------------|---------------------------|
 B|--------------------|--------------------|----------------------------|---------------------------|
 G|--------------------|--------------------|----------------------------|---------------------------|
 D|------1------1------|--------------------|----------------------------|---------------------------|
 A|---2------2---------|------6------6------|----------------------------|---------------------------|
 E|--------------------|---7------7---------|----------------------------|---------------------------|
 B|-----------------7--|-----------------9--|---9------------------9--9--|---9--------------9--9--9--|
F#|-----------------5--|-----------------7--|---7--7-7-7-7-7-7-7-7-7--6--|---6--6-6-6-6-6-6-7--6--7--|
                                                   * * * * * * * *              * * * * * * *  *  

      П  П V П V П V П V П  П      П  П V П V П V П  П  П
 E|----------------------------|---------------------------|
 B|----------------------------|---------------------------|
 G|----------------------------|---------------------------|
 D|----------------------------|---------------------------| x2
 A|----------------------------|---------------------------|
 E|----------------------------|---------------------------|
 B|---9------------------9--9--|---9--------------9--9--9--|
F#|---7--7-7-7-7-7-7-7-7-7--6--|---6--6-6-6-6-6-6-7--6--7--|
         * * * * * * * *              * * * * * * *  *  *

      П  П V П V П V П V П V П V   П V П V П V П V П  П  П  П
 E|------------------------------|-----------------------------|
 B|------------------------------|-----------------------------|
 G|------------------------------|-----------------------------|
 D|------------------------------|-----------------------------|
 A|------------------------------|-----------------------------|
 E|------------------------------|-----------------------------|
 B|---9--------------------------|-----------------8--9--8-----|
F#|---7--7-7-7-7-7-7-7-7-7-7-7-7-|-7-7-7-7-7-7-7-7-6--7--6--1--|
         * * * * * * * * * * * *   * * * * * * * * *  *  *

|--------------------------------------------------------------------------------------------------------|
|                                          OUTRO (04:20-04:47)                                           |
|--------------------------------------------------------------------------------------------------------|

Guitars 1 and 2 (w/ dist)

    П   П V   П V П V  П     П V     П V   П V П V  П     П V ----|
 E|------------------------------|----------------------------|   |
 B|------------------------------|----------------------------|   |
 G|------------------------------|----------------------------|   |
 D|------------------------------|----------------------------|   |
 A|------------------------------|----------------------------|   |
 E|------------------------------|----------------------------|   |
 B|------------------------------|----------------------------|   |
F#|-1---1-1---1-1-1-3--1-----1-1-|---1-1---1-1-1-3--1-----1-1-|   |
    *   * *   * * * *  *     * *     * *   * * * *  *     * *     |
                                                                  | x3  
      П V   П V П V  П     П V     П V    П V П V П V П V П V     |
 E|----------------------------|------------------------------|   |
 B|----------------------------|------------------------------|   |
 G|----------------------------|------------------------------|   |
 D|----------------------------|------------------------------|   |
 A|----------------------------|------------------------------|   |
 E|----------------------------|------------------------------|   |
 B|----------------------------|------------------------------|   |
F#|---1-1---1-1-1-3--1-----1-1-|---1-1----1-1-3-3-1-1-4-4-3-3-|   |
      * *   * * * *  *     * *     * *    * * * * * * * * * * ----|

    П   П V   П V П V  П     П V     П V   П V П V  П     П V
 E|------------------------------|----------------------------|
 B|------------------------------|----------------------------|
 G|------------------------------|----------------------------|
 D|------------------------------|----------------------------|
 A|------------------------------|----------------------------|
 E|------------------------------|----------------------------|
 B|------------------------------|----------------------------|
F#|-1---1-1---1-1-1-3--1-----1-1-|---1-1---1-1-1-3--1-----1-1-|
    *   * *   * * * *  *     * *     * *   * * * *  *     * *  

      П V   П V П V  П  П  П     П    П    П  П  П
 E|--------------------------|----------------------|
 B|--------------------------|----------------------|
 G|--------------------------|----------------------|
 D|--------------------------|----------------------|
 A|--------------------------|----------------------|
 E|--------------------------|----------------------|
 B|---------------------5--6-|---5----3----5--6--5--|
F#|---1-1---1-1-1-3--1--3--4-|---3----1----3--4--3--|
      * *   * * * *  *  *                  *  *  *


**********************************************************************************************************
*                                            3. DIELECTRIC                                               *
**********************************************************************************************************

|--------------------------------------------------------------------------------------------------------|
|                                          INTRO (00:00-00:41)                                           |
|--------------------------------------------------------------------------------------------------------|

Guitars 1 and 2 (w/ dist)

D|------------------------|------------------------|------------------------|-------------------------|
A|------------------------|------------------------|------------------------|-------------------------|
F|------------------------|------------------------|------------------------|-------------------------| x3
C|------------------------|------------------------|------------------------|-------------------------|
G|------------------------|------------------------|------------------------|-------------------------|
D|------------------------|------------------------|------------------------|-------------------------|
A|-3--2--1--2-----1--3--2-|-1--2-----1--1-----2--1-|-3--2--1--2-----1--3--2-|-1--2-----1--1-1-1--1--1-|
                  *                  *                              *                  *  * * *  *  *

D|------------------------|------------------------|------------------------|------------------------|
A|------------------------|------------------------|------------------------|------------------------|
F|------------------------|------------------------|------------------------|------------------------|
C|------------------------|------------------------|------------------------|------------------------|
G|------------------------|------------------------|------------------------|------------------------|
D|------------------------|------------------------|------------------------|------------------------|
A|-3--2--1--2-----1--3--2-|-1--2-----1--1-----2--1-|-3--2--1--2-----1--3--2-|-1--2-----1--1-----1--1-|
                  *                  *                              *                  *        *  *

|--------------------------------------------------------------------------------------------------------|
|                                          VERSE (00:41-01:01)                                           |
|--------------------------------------------------------------------------------------------------------|

Guitars 1 and 2 (w/ dist)

D|------------------------|------------------------|------------------------|-------------------------|
A|------------------------|------------------------|------------------------|-------------------------|
F|------------------------|------------------------|------------------------|-------------------------| x2
C|------------------------|------------------------|------------------------|-------------------------|
G|------------------------|-------------------3----|------------------------|-------------------------|
D|------------------------|------------------------|------------------------|-------------------------|
A|-3--2--1--2-----1--3--2-|-1--2-----1--1--------1-|-3--2--1--2-----1--3--2-|-1--2-----1--1-1-1--1--1-|
                  *                  *                              *                  *  * * *  *  *
D|------------------------|------------------------|
A|------------------------|------------------------|
F|------------------------|------------------------| x4
C|------------------------|------------------------|
G|------------------------|------------------------|
D|------------------------|------------------------|
A|-3--2--1--2--1--1--3--2-|-1--2--1--1--1-h2--2-h3-|
               *  *               *  *

|--------------------------------------------------------------------------------------------------------|
|                                        PRE-CHORUS (01:01-01:11)                                        |
|--------------------------------------------------------------------------------------------------------|

Guitars 1 and 2 (w/ dist)

D|------------------------|------------------------|
A|------------------------|------------------------|
F|------------------------|------------------------|
C|------------------------|------------------------|
G|------------------------|------------------------|
D|------------------------|-5----------------------|
A|-4--3-3-3--4---3--3-3-3-|----3-3-3--4---3--3-3-3-|
      * * *      *  * * *      * * *      *  * * *
D|------------------------|-------------------------|
A|------------------------|-------------------------|
F|------------------------|-------------------------|
C|------------------------|-------------------------|
G|------------------------|----------------------7--|
D|------------------------|----------------------5--|
A|-6--3-3-3--4---3--3-3-3-|-3-3-3--6-6-6--3-3-3-----|
      * * *      *  * * *   * * *  * * *  * * *

|--------------------------------------------------------------------------------------------------------|
|                                         VERSE 2 (01:11-01:31)                                          |
|--------------------------------------------------------------------------------------------------------|

Guitars 1 and 2 (w/ dist)

D|------------------------|------------------------|------------------------|-------------------------|
A|------------------------|------------------------|------------------------|-------------------------|
F|------------------------|------------------------|------------------------|-------------------------| x2
C|------------------------|------------------------|------------------------|-------------------------|
G|------------------------|-------------------3----|------------------------|-------------------------|
D|------------------------|------------------------|------------------------|-------------------------|
A|-3--2--1--2-----1--3--2-|-1--2-----1--1--------1-|-3--2--1--2-----1--3--2-|-1--2-----1--1-1-1--1--1-|
                  *                  *                              *                  *  * * *  *  *
D|------------------------|------------------------|     |------------------------|---------------------|
A|------------------------|------------------------|     |------------------------|---------------------|
F|------------------------|------------------------| x3  |------------------------|---------------------|
C|------------------------|------------------------|     |------------------------|---------------------|
G|------------------------|------------------------|     |------------------------|---------------------|
D|------------------------|------------------------|     |------------------------|---------------------|
A|-3--2--1--2--1--1--3--2-|-1--2--1--1--1-h2--2-h3-|     |-3--2--1--2-----1--3--2-|-1--2-----1--1-------|
               *  *               *  *                                    *                  *

|--------------------------------------------------------------------------------------------------------|
|                                          CHORUS (01:31-02:11)                                          |
|--------------------------------------------------------------------------------------------------------|

Guitars 1 and 2 (w/ dist)

       ..............      ..............      ..............  
D|-------------------|-------------------|-------------------|------------------------|
A|---------0---------|---------0---------|---------0---------|------------------------|
F|-----0--------0----|-----0--------0----|-----0--------0----|------------------------|
C|-------------------|-------------------|-------------------|------------------------|
G|-3-----------------|-7-----------------|-5-----------------|-5--------5--------7----|
D|-1-----------------|-5-----------------|-3-----------------|-3----3---3----3---5----|
A|-------------------|-------------------|-------------------|------------------------|
                                                                    *        *
       ..............      ..............      ..............  
D|-------------------|-------------------|-------------------|------------------------|
A|---------0---------|---------0---------|---------0---------|------------------------|
F|-----0--------0----|-----0--------0----|-----0--------0----|------------------------|
C|-------------------|-------------------|-------------------|------------------------|
G|-3-----------------|-7-----------------|-5-----------------|-5--------5--------2----|
D|-1-----------------|-5-----------------|-3-----------------|-3----3---3----3---0----|
A|-------------------|-------------------|-------------------|------------------------|
                                                                    *        *
       ..............      ..............      ..............  
D|-------------------|-------------------|-------------------|------------------------|
A|---------0---------|---------0---------|---------0---------|------------------------|
F|-----0--------0----|-----0--------0----|-----0--------0----|------------------------|
C|-------------------|-------------------|-------------------|------------------------|
G|-3-----------------|-7-----------------|-5-----------------|-5--------5--------7----|
D|-1-----------------|-5-----------------|-3-----------------|-3----3---3----3---5----|
A|-------------------|-------------------|-------------------|------------------------|
                                                                    *        *
       ..............      ..............      ..............  
D|-------------------|-------------------|-------------------|------------------|----------------------|
A|---------0---------|---------0---------|---------0---------|------------------|----------------------|
F|-----0--------0----|-----0--------0----|-----0--------0----|------------------|----------------------|
C|-------------------|-------------------|-------------------|------------------|----------------------|
G|-3-----------------|-7-----------------|-5-----------------|-10-----10-----10-|----10-----10----10---|
D|-1-----------------|-5-----------------|-3-----------------|-8---8--8---8--7--|-7--7---7--7-s8--8-s7-|
A|-------------------|-------------------|-------------------|------------------|----------------------|
                                                                   *      *       *      *                  
D|------------------|------------------|------------------|------------------|
A|------------------|------------------|------------------|------------------|
F|------------------|------------------|------------------|------------------| x3
C|------------------|------------------|------------------|------------------|
G|------------------|------------------|---------------7--|--7------7--9--9--|
D|-3------3------2--|--2------2--3--2--|-5------5------5--|--5------5--7--7--|
A|-1---1--1---0--0--|--0---0--0--1--0--|-3---3--3---3--5--|--5---5--5--7--7--|
       *      *            *                 *      *            *
D|------------------------|----------------------|----------------------|------------------|
A|------------------------|----------------------|----------------------|------------------|
F|------------------------|----------------------|----------------------|------------------|
C|------------------------|----------------------|----------------------|------------------|
G|------------------------|----------------------|-------------------7--|--7------7--9--9--|
D|-3--------3--------2----|----2--------2--3--2--|-5--------5--------5--|--5------5--7--7--|
A|-1--1--1--1--1--1--0--0-|-0--0--0--0--0--1--0--|-3--3--3--3--3--3--5--|--5---5--5--7--7--|
      *  *     *  *     *   *     *  *                *  *     *  *            *

|--------------------------------------------------------------------------------------------------------|
|                                          BRIDGE (02:11-03:17)                                          |
|--------------------------------------------------------------------------------------------------------|

Guitars 1 and 2 (w/ dist)
                                                      ----------------|
D|--------------------------------|----------------------------|      |
A|--------------------------------|----------------------------|      |
F|--------------------------------|----------------------------|      |
C|--------------------------------|----------------------------|      |
G|--------------------------------|----------------------------|      |
D|--------------------------------|----------------------------|      |
A|-2-2-2-2-2-2-2-2-2------2-2-2-2-|-2-2-2-2-2------2-2-2--2--2-|      |
   * * * * * * * * *      * * * *   * * * * *      * * *  *  *        |
D|--------------------------------|---------------------|             |
A|--------------------------------|---------------------|             |
F|--------------------------------|---------------------|             |
C|--------------------------------|---------------------|             |
G|--------------------------------|-------------5---4---|             | 
D|--------------------------------|-------------3---2---|             |
A|-2-2-2-2-2-2-2-2-2------2-2-2-2-|-2--2--2--2----------|             |
   * * * * * * * * *      * * * *   *  *  *  *                        | x3
D|--------------------------------|----------------------------|      |
A|--------------------------------|----------------------------|      |
F|--------------------------------|----------------------------|      |
C|--------------------------------|----------------------------|      |
G|--------------------------------|----------------------------|      |
D|--------------------------------|----------------------------|      |
A|-2-2-2-2-2-2-2-2-2------2-2-2-2-|-2-2-2-2-2------2-2-2--2--2-|      |
   * * * * * * * * *      * * * *   * * * * *      * * *  *  *        |
D|--------------------------------|---------------------|             |
A|--------------------------------|---------------------|             |
F|--------------------------------|---------------------|             |
C|--------------------------------|---------------------|             |
G|--------------------------------|-------------5---7---|             |
D|--------------------------------|-------------3---5---|             |
A|-2-2-2-2-2-2-2-2-2------2-2-2-2-|-2--2--2--2----------|             |
   * * * * * * * * *      * * * *   *  *  *  *        ----------------|

D|---------------------------|----------------------|
A|---------------------------|----------------------|
F|---------------------------|----------------------| x2
C|---------------------------|----------------------|
G|----------5-s4-------------|-------------7-s6--7--|
D|-5-s4-----3-s2--2--2-2-2-2-|-2--7-s6-----5-s4--5--|
A|-3-s2--2-------------------|----5-s4--4-----------|
         *        *  * * * *   *        *

D|--------------------------------|----------------------------|
A|--------------------------------|----------------------------|
F|--------------------------------|----------------------------|
C|--------------------------------|----------------------------|
G|--------------------------------|----------------------------|
D|--------------------------------|----------------------------|
A|-2-2-2-2-2-2-2-2-2------2-2-2-2-|-2-2-2-2-2------2-2-2--2--2-|
   * * * * * * * * *      * * * *   * * * * *      * * *  *  *
D|--------------------------------|---------------------|
A|--------------------------------|---------------------|
F|--------------------------------|---------------------|
C|--------------------------------|---------------------|
G|--------------------------------|-------------5---4---|
D|--------------------------------|-------------3---2---|
A|-2-2-2-2-2-2-2-2-2------2-2-2-2-|-2--2--2--2----------|
   * * * * * * * * *      * * * *   *  *  *  *  
D|--------------------------------|----------------------------|
A|--------------------------------|----------------------------|
F|--------------------------------|----------------------------|
C|--------------------------------|----------------------------|
G|--------------------------------|----------------------------|
D|--------------------------------|----------------------------|
A|-2-2-2-2-2-2-2-2-2------2-2-2-2-|-2-2-2-2-2------2-2-2--2--2-|
   * * * * * * * * *      * * * *   * * * * *      * * *  *  *
D|--------------------------------|---------------------|
A|--------------------------------|---------------------|
F|--------------------------------|---------------------|
C|--------------------------------|---------------------|
G|--------------------------------|-------------5---7---|
D|--------------------------------|-------------3---5---|
A|-2-2-2-2-2-2-2-2-2------2-2-2-2-|-2--2--2--2----------|
   * * * * * * * * *      * * * *   *  *  *  *   

D|---------------------------|----------------------|
A|---------------------------|----------------------|
F|---------------------------|----------------------| x4
C|---------------------------|----------------------|
G|----------5-s4-------------|-------------7-s6--7--|
D|-5-s4-----3-s2--2--2-2-2-2-|-2--7-s6-----5-s4--5--|
A|-3-s2--2-------------------|----5-s4--4-----------|
         *        *  * * * *   *        *

D|------------------------|------------------------|------------------------|-------------------------|
A|------------------------|------------------------|------------------------|-------------------------|
F|------------------------|------------------------|------------------------|-------------------------|
C|------------------------|------------------------|------------------------|-------------------------|
G|------------------------|------------------------|------------------------|-------------------------|
D|------------------------|------------------------|------------------------|-------------------------|
A|-3--2--1--2-----1--3--2-|-1--2-----1--1-----2--1-|-3--2--1--2-----1--3--2-|-1--2-----1--1-1-1--1--1-|
                  *                  *                              *                  *  * * *  *  *
D|------------------------|------------------------|------------------------|---------------------|
A|------------------------|------------------------|------------------------|---------------------|
F|------------------------|------------------------|------------------------|---------------------|
C|------------------------|------------------------|------------------------|---------------------|
G|------------------------|------------------------|------------------------|---------------------|
D|------------------------|------------------------|------------------------|---------------------|
A|-3--2--1--2-----1--3--2-|-1--2-----1--1-----2--1-|-3--2--1--2-----1--3--2-|-1--2-----1--1-------|
                  *                  *                              *                  *

|--------------------------------------------------------------------------------------------------------|
|                                         CHORUS 2 (03:17-03:57)                                         |
|--------------------------------------------------------------------------------------------------------|

Guitars 1 and 2 (w/ dist)

       ..............      ..............      ..............  
D|-------------------|-------------------|-------------------|------------------------|
A|---------0---------|---------0---------|---------0---------|------------------------|
F|-----0--------0----|-----0--------0----|-----0--------0----|------------------------|
C|-------------------|-------------------|-------------------|------------------------|
G|-3-----------------|-7-----------------|-5-----------------|-5--------5--------7----|
D|-1-----------------|-5-----------------|-3-----------------|-3----3---3----3---5----|
A|-------------------|-------------------|-------------------|------------------------|
                                                                    *        *
       ..............      ..............      ..............  
D|-------------------|-------------------|-------------------|------------------------|
A|---------0---------|---------0---------|---------0---------|------------------------|
F|-----0--------0----|-----0--------0----|-----0--------0----|------------------------|
C|-------------------|-------------------|-------------------|------------------------|
G|-3-----------------|-7-----------------|-5-----------------|-5--------5--------2----|
D|-1-----------------|-5-----------------|-3-----------------|-3----3---3----3---0----|
A|-------------------|-------------------|-------------------|------------------------|
                                                                    *        *
       ..............      ..............      ..............  
D|-------------------|-------------------|-------------------|------------------------|
A|---------0---------|---------0---------|---------0---------|------------------------|
F|-----0--------0----|-----0--------0----|-----0--------0----|------------------------|
C|-------------------|-------------------|-------------------|------------------------|
G|-3-----------------|-7-----------------|-5-----------------|-5--------5--------7----|
D|-1-----------------|-5-----------------|-3-----------------|-3----3---3----3---5----|
A|-------------------|-------------------|-------------------|------------------------|
                                                                    *        *
       ..............      ..............      ..............  
D|-------------------|-------------------|-------------------|------------------|----------------------|
A|---------0---------|---------0---------|---------0---------|------------------|----------------------|
F|-----0--------0----|-----0--------0----|-----0--------0----|------------------|----------------------|
C|-------------------|-------------------|-------------------|------------------|----------------------|
G|-3-----------------|-7-----------------|-5-----------------|-10-----10-----10-|----10-----10----10---|
D|-1-----------------|-5-----------------|-3-----------------|-8---8--8---8--7--|-7--7---7--7-s8--8-s7-|
A|-------------------|-------------------|-------------------|------------------|----------------------|
                                                                   *      *       *      *
D|------------------------|------------------------|------------------------|------------------------|
A|------------------------|------------------------|------------------------|------------------------|
F|------------------------|------------------------|------------------------|------------------------|
C|------------------------|------------------------|------------------------|------------------------|
G|-3--------3--------3----|-7--------7--------7----|-5--------5--------5----|----5--------5-----7----|
D|-1--1--1--1--1--1--1--1-|-5--5--5--5--5--5--5--5-|-3--3--3--3--3--3--3--3-|-3--3--3--3--3--3--5--5-|
A|------------------------|------------------------|------------------------|------------------------|
      *  *     *  *     *      *  *     *  *     *      *  *     *  *     *   *     *  *     *     *
D|------------------------|------------------------|------------------------|------------------------|
A|------------------------|------------------------|------------------------|------------------------|
F|------------------------|------------------------|------------------------|------------------------|
C|------------------------|------------------------|------------------------|------------------------|
G|-3--------3--------3----|-7--------7--------7----|-5--------5--------5----|----5--------5-----2----|
D|-1--1--1--1--1--1--1--1-|-5--5--5--5--5--5--5--5-|-3--3--3--3--3--3--3--3-|-3--3--3--3--3--3--0--0-|
A|------------------------|------------------------|------------------------|------------------------|
      *  *     *  *     *      *  *     *  *     *      *  *     *  *     *   *     *  *     *     *
D|------------------------|------------------------|------------------------|------------------------|
A|------------------------|------------------------|------------------------|------------------------|
F|------------------------|------------------------|------------------------|------------------------|
C|------------------------|------------------------|------------------------|------------------------|
G|-3--------3--------3----|-7--------7--------7----|-5--------5--------5----|----5--------5-----7----|
D|-1--1--1--1--1--1--1--1-|-5--5--5--5--5--5--5--5-|-3--3--3--3--3--3--3--3-|-3--3--3--3--3--3--5--5-|
A|------------------------|------------------------|------------------------|------------------------|
      *  *     *  *     *      *  *     *  *     *      *  *     *  *     *   *     *  *     *     *
D|------------------------|------------------------|------------------------|
A|------------------------|------------------------|------------------------|
F|------------------------|------------------------|------------------------|
C|------------------------|------------------------|------------------------|
G|-3--------3--------3----|-7--------7--------7----|-5--------5--------5----|
D|-1--1--1--1--1--1--1--1-|-5--5--5--5--5--5--5--5-|-3--3--3--3--3--3--3--3-|
A|------------------------|------------------------|------------------------|
      *  *     *  *     *      *  *     *  *     *      *  *     *  *     * 
D|------------------|----------------------|
A|------------------|----------------------|
F|------------------|----------------------|
C|------------------|----------------------|
G|-10-----10-----10-|----10-----10----10---|
D|-8---8--8---8--7--|-7--7---7--7-s8--8-s7-|
A|------------------|----------------------|
       *      *       *      *    

|--------------------------------------------------------------------------------------------------------|
|                                          OUTRO (03:57-04:19)                                           |
|--------------------------------------------------------------------------------------------------------|

Guitars 1 and 2 (w/ dist)

D|------------------|------------------|------------------|------------------|
A|------------------|------------------|------------------|------------------|
F|------------------|------------------|------------------|------------------| x3
C|------------------|------------------|------------------|------------------|
G|------------------|------------------|---------------7--|--7------7--9--9--|
D|-3------3------2--|--2------2--3--2--|-5------5------5--|--5------5--7--7--|
A|-1---1--1---0--0--|--0---0--0--1--0--|-3---3--3---3--5--|--5---5--5--7--7--|
       *      *            *                 *      *            *
D|------------------------|----------------------|-----------------|-------------------|
A|------------------------|----------------------|-----------------|-------------------|
F|------------------------|----------------------|-----------------|-------------------|
C|------------------------|----------------------|-----------------|-------------------|
G|------------------------|----------------------|--------------7--|--7----7--7--9--9--|
D|-3--------3--------2----|----2--------2--3--2--|-5----5----5--5--|--5----5--5--7--7--|
A|-1--1--1--1--1--1--0--0-|-0--0--0--0--0--1--0--|-3----3----3--5--|--5----5--5--7--7--|
      *  *     *  *     *   *     *  *   


**********************************************************************************************************
*                                           4. SOUL HACKER                                               *
**********************************************************************************************************

|--------------------------------------------------------------------------------------------------------|
|                                          INTRO (00:00-00:18)                                           |
|--------------------------------------------------------------------------------------------------------|

Guitars 1 and 2 (w/ dist)

 E|-----------------------|-----------------------|------------------------|-------------------------|
 B|-----------------------|-----------------------|------------------------|-------------------------|
 G|-----------------------|-----------------------|------------------------|-------------------------|
 D|-----------------------|-----------------------|------------------------|-------------------------|
 A|-----------------------|-----------------------|------------------------|-------------------------|
 E|-----------------------|-----------------------|------------------------|-------------------------|
 B|-----------------------|------------------8----|------------------11----|------------5-8-8--5-7-7-|
F#|-0---1p0--0-0--0--1--0-|--0--1p0--0-0--0-----0-|--0--1p0--0-0--0------0-|--0--1p0--0--------------|
             *                       *                       *                        *
 E|-----------------------|-----------------------|------------------------|-------------------------|
 B|-----------------------|-----------------------|------------------------|-------------------------|
 G|-----------------------|-----------------------|------------------------|-------------------------|
 D|-----------------------|-----------------------|------------------------|-------------------------|
 A|-----------------------|-----------------------|------------------------|-------------------------|
 E|-----------------------|-----------------------|------------------------|-------------------------|
 B|-----------------------|------------------8----|------------------11----|-------------------------|
F#|-0---1p0--0-0--0--1--0-|--0--1p0--0-0--0-----0-|--0--1p0--0-0--0------0-|--0--1p0--0-2-2-2--2-2-2-|
             *                       *                       *                        * * * *  * * *
 E|--------------|
 B|--------------|
 G|--------------|
 D|--------------|
 A|--------------|
 E|--------------|
 B|--------------|
F#|-2-2-2--2-2-2-|
    * * *  * * *

|--------------------------------------------------------------------------------------------------------|
|                                          VERSE (00:18-00:33)                                           |
|--------------------------------------------------------------------------------------------------------|

Guitars 1 and 2 (w/ dist)

 E|------------------------|------------------------|------------------------|--------------------------|
 B|------------------------|------------------------|------------------------|--------------------------|
 G|------------------------|------------------------|------------------------|--------------------------|
 D|------------------------|------------------------|------------------------|--------------------------|
 A|------------------------|------------------------|------------------------|--------------------------|
 E|------------------------|------------------------|------------------------|--------------------------|
 B|------------------------|------------------------|------------------------|--------------------------|
F#|-0----0-0--0-0--0--1--0-|---0--0-0--0-0--0--4--0-|---0--0-0--0-0--0--1--0-|---0--0-0--0-2-5-5--2-4-4-|
    *    * *  * *  *  *  *     *  * *  * *  *  *  *     *  * *  * *  *  *  *     *  * *  * * * *  * * *

 E|------------------------|------------------------|------------------------|--------------------------|
 B|------------------------|------------------------|------------------------|--------------------------|
 G|------------------------|------------------------|------------------------|--------------------------|
 D|------------------------|------------------------|------------------------|--------------------------|
 A|------------------------|------------------------|------------------------|--------------------------|
 E|------------------------|------------------------|------------------------|--------------------------|
 B|------------------------|------------------------|------------------------|--------------------------|
F#|-0----0-0--0-0--0--1--0-|---0--0-0--0-0--0--4--0-|---0--0-0--0-0--0--1--0-|---0--0-0--0-2-5-5--2-4-4-|
    *    * *  * *  *  *  *     *  * *  * *  *  *  *     *  * *  * *  *  *  *     *  * *  * 
                                     
|--------------------------------------------------------------------------------------------------------|
|                                        PRE-CHORUS (00:33-00:49)                                        |
|--------------------------------------------------------------------------------------------------------|

Guitars 1 and 2 (w/ dist)

 E|-------------------------|--------------------------|------------------------|----------------------|
 B|-------------------------|--------------------------|------------------------|----------------------|
 G|-------------------------|--------------------------|------------------------|----------------------|
 D|-------------------------|--------------------------|------------------------|----------------------|
 A|-------------------------|--------------------------|------------------------|----------------------|
 E|-9--7--9--------9-----10-|--10--10--------12-----12-|--12--12--------7-----7-|--7--7----------------|
 B|-7--5--7--------7-----8--|--8---8---------10-----9--|--9---9---------5-----4-|--4--4----------------|
F#|----------0--0-----0-----|----------0--0------0-----|----------0--0-----0----|--------0--3--5--3--2-|
             *  *     *                *  *      *                *  *     *             *
 E|-------------------------|--------------------------|------------------------|----------------------|
 B|-------------------------|--------------------------|------------------------|----------------------|
 G|-------------------------|--------------------------|------------------------|----------------------|
 D|-------------------------|--------------------------|------------------------|----------------------|
 A|-------------------------|--------------------------|------------------------|----------------------|
 E|-9--7--9--------9-----10-|--10--10--------12-----12-|--12--12--------7-----7-|----------------------|
 B|-7--5--7--------7-----8--|--8---8---------10-----9--|--9---9---------5-----4-|----------------------|
F#|----------0--0-----0-----|----------0--0------0-----|----------0--0-----0----|----------------------|
             *  *     *                *  *      *                *  *     *    

|--------------------------------------------------------------------------------------------------------|
|                                          CHORUS (00:49-01:05)                                          |
|--------------------------------------------------------------------------------------------------------|
                                              same as INTRO
|--------------------------------------------------------------------------------------------------------|
|                                         VERSE 2 (01:05-01:20)                                          |
|--------------------------------------------------------------------------------------------------------|
                                              same as VERSE
|--------------------------------------------------------------------------------------------------------|
|                                       PRE-CHORUS 2 (01:20-01:36)                                       |
|--------------------------------------------------------------------------------------------------------|

Guitars 1 and 2 (w/ dist)

 E|-------------------------|--------------------------|------------------------|----------------------|
 B|-------------------------|--------------------------|------------------------|----------------------|
 G|-------------------------|--------------------------|------------------------|----------------------|
 D|-------------------------|--------------------------|------------------------|----------------------|
 A|-------------------------|--------------------------|------------------------|----------------------|
 E|-9--7--9--------9-----10-|--10--10--------12-----12-|--12--12--------7-----7-|--7--7----------------|
 B|-7--5--7--------7-----8--|--8---8---------10-----9--|--9---9---------5-----4-|--4--4----------------|
F#|----------0--0-----0-----|----------0--0------0-----|----------0--0-----0----|--------0--3--5--3--2-|
             *  *     *                *  *      *                *  *     *             *
 E|-------------------------|--------------------------|------------------------|----------------------|
 B|-------------------------|--------------------------|------------------------|----------------------|
 G|-------------------------|--------------------------|------------------------|----------------------|
 D|-------------------------|--------------------------|------------------------|----------------------|
 A|-------------------------|--------------------------|------------------------|----------------------|
 E|-9--7--9--------9-----10-|--10--10--------12-----12-|--12--12--------7-----7-|--7--7--7-------------|
 B|-7--5--7--------7-----8--|--8---8---------10-----9--|--9---9---------5-----4-|--4--4--4-------------|
F#|----------0--0-----0-----|----------0--0------0-----|----------0--0-----0----|-----------3--5--3--2-|
             *  *     *                *  *      *                *  *     *    

|--------------------------------------------------------------------------------------------------------|
|                                         CHORUS 2 (01:36-01:51)                                         |
|--------------------------------------------------------------------------------------------------------|

Guitars 1 and 2 (w/ dist)

 E|-----------------------|-----------------------|------------------------|-------------------------|
 B|-----------------------|-----------------------|------------------------|-------------------------|
 G|-----------------------|-----------------------|------------------------|-------------------------|
 D|-----------------------|-----------------------|------------------------|-------------------------| x2
 A|-----------------------|-----------------------|------------------------|-------------------------|
 E|-----------------------|-----------------------|------------------------|-------------------------|
 B|-----------------------|------------------8----|------------------11----|------------5-8-8--5-7-7-|
F#|-0---1p0--0-0--0--1--0-|--0--1p0--0-0--0-----0-|--0--1p0--0-0--0------0-|--0--1p0--0--------------|
             *                       *                       *                        *

|--------------------------------------------------------------------------------------------------------|
|                                          BRIDGE (01:51-02:08)                                          |
|--------------------------------------------------------------------------------------------------------|

Guitars 1 and 2 (w/ dist)

 E|----------------------------|
 B|----------------------------|
 G|----------------------------|
 D|----------------------------|
 A|----------------------------|
 E|----------------------------|
 B|-5-8-8--5-7-7--5-8-8--5-7-7-|
F#|----------------------------|

 E|-----------------------|--------------------|-----------------------|-------------------|
 B|-----------------------|--------------------|-----------------------|-------------------|
 G|-----------------------|--------------------|-----------------------|-------------------|
 D|-----------------------|--------------------|-----------------------|-------------------|
 A|-----------------------|--------------------|-----------------------|-------------------|
 E|-----------------------|--------------------|-----------------------|-------------------|
 B|-3---3--3-3-5--3--5--7-|--7--7--7---7--7--7-|-3---3--3-3-5--3--5--7-|--7--7--7---7------|
F#|-1---1--1-1-3--1--3--5-|--5--5--4---4--4--5-|-1---1--1-1-3--1--3--5-|--5--5--4---4--3b--|
           * *                                          * *       
 E|-----------------------|--------------------|-----------------------|---------------x-----|
 B|-----------------------|--------------------|-----------------------|----------------x----|
 G|-----------------------|--------------------|-----------------------|-----------------x---|
 D|-----------------------|--------------------|-----------------------|------------------x--|
 A|-----------------------|--------------------|-----------------------|-------------------x-|
 E|-----------------------|--------------------|-----------------------|---------------------|
 B|-3---3--3-3-5--3--5--7-|--7--7--7---7--7--7-|-3---3--3-3-5--3--5--7-|--7--7--7---7--------|
F#|-1---1--1-1-3--1--3--5-|--5--5--4---4--4--5-|-1---1--1-1-3--1--3--5-|--5--5--4---4--------|
           * *                                          * * 

|--------------------------------------------------------------------------------------------------------|
|                                           SOLO (02:08-02:23)                                           |
|--------------------------------------------------------------------------------------------------------|

Guitars 1 and 2 (w/ dist) - Rhythm for SOLO

 E|-----------------------|--------------------|-----------------------|-------------------|
 B|-----------------------|--------------------|-----------------------|-------------------|
 G|-----------------------|--------------------|-----------------------|-------------------|
 D|-----------------------|--------------------|-----------------------|-------------------|
 A|-----------------------|--------------------|-----------------------|-------------------|
 E|-----------------------|--------------------|-----------------------|-------------------|
 B|-3---3--3-3-5--3--5--7-|--7--7--7---7--7--7-|-3---3--3-3-5--3--5--7-|--7--7--7---7------|
F#|-1---1--1-1-3--1--3--5-|--5--5--4---4--4--5-|-1---1--1-1-3--1--3--5-|--5--5--4---4--3b--|
           * *                                          * * 
 E|-----------------------|--------------------|-----------------------|-------------------|
 B|-----------------------|--------------------|-----------------------|-------------------|
 G|-----------------------|--------------------|-----------------------|-------------------|
 D|-----------------------|--------------------|-----------------------|-------------------|
 A|-----------------------|--------------------|-----------------------|-------------------|
 E|-----------------------|--------------------|-----------------------|-------------------|
 B|-3---3--3-3-5--3--5--7-|--7--7--7---7--7--7-|-3---3--3-3-5--3--5--7-|--7--7--7---7--7---|
F#|-1---1--1-1-3--1--3--5-|--5--5--4---4--4--5-|-1---1--1-1-3--1--3--5-|--5--5--4---4--5---|
           * *                                          * * 

Guitar 3 (w/ dist and delay)

 E|-----------------|-----------|------------------|-----------|
 B|-12~~~~~---------|----15~~~~~|~11~~~~~----------|-----------|
 G|--------/s11--12~|~~~~-------|--------/s11------|-----------|
 D|-----------------|-----------|---------------11-|----12~~~~~|
 A|-----------------|-----------|------------------|-----------|
 E|-----------------|-----------|------------------|-----------|
 B|-----------------|-----------|------------------|-----------|
F#|-----------------|-----------|------------------|-----------|

                                                    ..........
 E|-----------------|-----------|-14-h15--------------|--------|
 B|-12~~~~~~--------|----15~~~~~|---------------------|---12---|
 G|--------/s11--12~|~~~~-------|---------15~~~19--15-|--------|
 D|-----------------|-----------|---------------------|--------|
 A|-----------------|-----------|---------------------|--------|
 E|-----------------|-----------|---------------------|--------|
 B|-----------------|-----------|---------------------|--------|
F#|-----------------|-----------|---------------------|--------|

|--------------------------------------------------------------------------------------------------------|
|                                       PRE-CHORUS 3 (02:23-02:39)                                       |
|--------------------------------------------------------------------------------------------------------|
                                            same as PRE-CHORUS
|--------------------------------------------------------------------------------------------------------|
|                                         CHORUS 3 (02:39-02:54)                                         |
|--------------------------------------------------------------------------------------------------------|
                                            same as CHORUS 2 
|--------------------------------------------------------------------------------------------------------|
|                                          OUTRO (02:54-03:11)                                           |
|--------------------------------------------------------------------------------------------------------|

Guitars 1 and 2 (w/ dist)

 E|-------------------------------|--------------------------------|
 B|-------------------------------|--------------------------------|
 G|-------------------------------|--------------------------------|
 D|-------------------------------|--------------------------------|
 A|-------------------------------|--------------------------------|
 E|-------------------------------|--------------------------------|
 B|-------------------------------|--------------------------------|
F#|-0--0-0-1p0-0-0-1--0-3--0-3b-r-|-b-r-0-0-1p0-0-0-3--0-1--0-3b-r-|
       * *     * *    *    *            * *     * *    *    *
 E|--------------------------------|-------------------------------|---------------|
 B|--------------------------------|-------------------------------|---------------|
 G|--------------------------------|-------------------------------|---------------|
 D|--------------------------------|-------------------------------|---------------|
 A|--------------------------------|-------------------------------|---------------|
 E|--------------------------------|-------------------------------|---------------|
 B|--------------------------------|-----------------5-8-8--5-7-7--|-5-8-8--5-7-7--|
F#|-b-r-0-0-1p0-0-0-3--0-1--0-3b-r-|-b-r-0-0-1p0-0-0---------------|---------------|
        * *     * *    *    *            * *     * *   


**********************************************************************************************************
*                                            5. PROTOMECH                                                *
**********************************************************************************************************

|--------------------------------------------------------------------------------------------------------|
|                                          INTRO (00:00-00:45)                                           |
|--------------------------------------------------------------------------------------------------------|

Guitars 1 and 2 (w/ dist)

 C|------------------|---------------------------|------------------|--------------------|
 G|------------------|---------------------------|------------------|--------------------|
D#|------------------|---------------------------|------------------|--------------------|
A#|------------------|---------------------------|------------------|--------------------|
 F|------------------|---------------------------|------------------|--------------------|
 C|------------------|---------------------------|------------------|--------------------|
 G|-2-2-2----2-2-2---|---2-2-2-2-2-2-2-2-2-2-2-2-|-2-2-2----2-2-2---|---2-2-2-2-2--2--0--|
    * * *    * * *       * * * * * * * * * * * *   * * *    * * *       * * * * *  *  * 
 C|------------------|---------------------------|------------------|--------------------|
 G|------------------|---------------------------|------------------|-----------------3--|
D#|------------------|---------------------------|------------------|-----------------3--|
A#|------------------|---------------------------|------------------|--------------------|
 F|------------------|---------------------------|------------------|--------------------|
 C|------------------|---------------------------|------------------|--------------------|
 G|-2-2-2----2-2-2---|---2-2-2-2-2-2-2-2-2-2-2-2-|-2-2-2----2-2-2---|---2-2-2-2-2--2-----|
    * * *    * * *       * * * * * * * * * * * *   * * *    * * *       * * * * *  *
 C|------------------|---------------------------|------------------|--------------------|
 G|------------------|---------------------------|------------------|--------------------|
D#|------------------|---------------------------|------------------|--------------------|
A#|------------------|---------------------------|------------------|--------------------|
 F|------------------|---------------------------|------------------|--------------------|
 C|------------------|---------------------------|------------------|--------------------|
 G|-2-2-2----2-2-2---|---2-2-2-2-2-2-2-2-2-2-2-2-|-2-2-2----2-2-2---|---2-2-2-2-2--2--0--|
    * * *    * * *       * * * * * * * * * * * *   * * *    * * *       * * * * *  *  *
 C|------------------|---------------------------|--------------------------|------------|
 G|------------------|---------------------------|--------------------------|------------|
D#|------------------|---------------------------|--------------------------|------------|
A#|------------------|---------------------------|--------------------------|------------|
 F|------------------|---------------------------|--------------------------|------------|
 C|------------------|---------------------------|--------------------------|------------|
 G|-2-2-2----2-2-2---|---2-2-2-2-2-2-2-2-2-2-2-2-|-2-2-2----2-2-2----2-2-2--|------------|
    * * *    * * *       * * * * * * * * * * * *   * * *    * * *    * * *

 C|------------------|---------------------------|------------------|--------------------|
 G|------------------|---------------------------|------------------|--------------------|
D#|------------------|---------------------------|------------------|--------------------|
A#|------------------|---------------------------|------------------|--------------------|
 F|------------------|---------------------------|------------------|--------------------|
 C|------------------|---------------------------|------------------|--------------------|
 G|-2-2-2----2-2-2---|---2-2-2-2-2-2-2-2-2-2-2-2-|-2-2-2----2-2-2---|---2-2-2-2-2--2--0--|
    * * *    * * *       * * * * * * * * * * * *   * * *    * * *       * * * * *  *  * 
 C|------------------|---------------------------|------------------|--------------------|
 G|------------------|---------------------------|------------------|-----------------3--|
D#|------------------|---------------------------|------------------|-----------------3--|
A#|------------------|---------------------------|------------------|--------------------|
 F|------------------|---------------------------|------------------|--------------------|
 C|------------------|---------------------------|------------------|--------------------|
 G|-2-2-2----2-2-2---|---2-2-2-2-2-2-2-2-2-2-2-2-|-2-2-2----2-2-2---|---2-2-2-2-2--2-----|
    * * *    * * *       * * * * * * * * * * * *   * * *    * * *       * * * * *  *
 C|------------------|---------------------------|------------------|--------------------|
 G|------------------|---------------------------|------------------|--------------------|
D#|------------------|---------------------------|------------------|--------------------|
A#|------------------|---------------------------|------------------|--------------------|
 F|------------------|---------------------------|------------------|--------------------|
 C|------------------|---------------------------|------------------|--------------------|
 G|-2-2-2----2-2-2---|---2-2-2-2-2-2-2-2-2-2-2-2-|-2-2-2----2-2-2---|---2-2-2-2-2--2--0--|
    * * *    * * *       * * * * * * * * * * * *   * * *    * * *       * * * * *  *  *
 C|------------------|---------------------------|--------------------------|--------------------|
 G|------------------|---------------------------|--------------------------|-----------------3--|
D#|------------------|---------------------------|--------------------------|-----------------3--|
A#|------------------|---------------------------|--------------------------|--------------------|
 F|------------------|---------------------------|--------------------------|--------------------|
 C|------------------|---------------------------|--------------------------|--------------------|
 G|-2-2-2----2-2-2---|---2-2-2-2-2-2-2-2-2-2-2-2-|-2-2-2----2-2-2----2-2-2--|---2-2-2-2-2--2-----|
    * * *    * * *       * * * * * * * * * * * *   * * *    * * *    * * *      * * * * *  *

 C|--------------------------|
 G|--------------------------|
D#|--------------------------| x8
A#|--------------------------| 
 F|--------------------------|
 C|--------------------------|
 G|-4-3-3--3--3-4-3--3--3----|
    * * *  *  * * *  *  * 

|--------------------------------------------------------------------------------------------------------|
|                                          VERSE (00:45-01:03)                                           |
|--------------------------------------------------------------------------------------------------------|

Guitars 1 and 2 (w/ dist)

 C|------------------------|------------------------|------------------------|-----------------------|
 G|------------------------|------------------------|------------------------|-----------------------|
D#|------------------------|------------------------|------------------------|-----------------------|
A#|------------------------|------------------------|------------------------|-------------------6s5-|\
 F|------------------------|------------------------|------------------------|-----------------------| \ 
 C|------------------------|------------------------|------------------------|-----------------------|  \
 G|-4-3-3--3--3-4-3--3--3--|--4-3-3--3--3-4-3--3--3-|-4-3-3--3--3-4-3--3--3--|--4-3-3--3--3-4-3------|   \
    * * *  *  * * *  *  *     * * *  *  * * *  *  *   * * *  *  * * *  *  *     * * *  *  * * *           \
                                                                                                           x2
 C|------------------------|------------------------|------------------------|----------------------------|/
 G|------------------------|------------------------|------------------------|----------------------------|
D#|------------------------|------------------------|------------------------|----------------------------|
A#|------------------------|------------------------|------------------------|----------------------------|
 F|------------------------|------------------------|------------------------|----------------------------|
 C|------------------------|------------------------|------------------------|----------------------------|
 G|-4-3-3--3--3-4-3--3--3--|--4-3-3--3--3-4-3--3--3-|-4-3-3--3--3-4-3--3--3--|--4-3-3--3--4-4-4-4-4-4-4-4-|
    * * *  *  * * *  *  *     * * *  *  * * *  *  *   * * *  *  * * *  *  *     * * *  *  * * * * * * * * 
                                     
|--------------------------------------------------------------------------------------------------------|
|                                        PRE-CHORUS (01:03-01:22)                                        |
|--------------------------------------------------------------------------------------------------------|

Guitars 1 and 2 (w/ dist)

 C|---------------------------|----------------------------|
 G|---------------------------|----------------------------|
D#|---------------------------|----------------------------|
A#|---------------------------|----------------------------|
 F|---------------------------|----------------------------|
 C|---------------------------|----------------------------|
 G|-5-4-4--4--5-4-4--4--4-----|-5-4-4--4--5-4-4--4--4------|
    * * *  *  * * *  *  *       * * *  *  * * *  *  * 
                                                              x2
 C|---------------------------|----------------------------|
 G|---------------------------|----------------------------|
D#|---------------------------|----------------------------|
A#|---------------------------|----------------------------|
 F|---------------------------|----------------------------|
 C|---------------------------|----------------------------|
 G|-5-4-4--4--5-4-4--4--4-----|-5-5-5--5-5-5--5-5-5--5-5-5-|
    * * *  *  * * *  *  *       * * *  * * *  * * *  * * *

 C|------------------|---------------------------|------------------|--------------------|
 G|------------------|---------------------------|------------------|--------------------|
D#|------------------|---------------------------|------------------|--------------------|
A#|------------------|---------------------------|------------------|--------------------|
 F|------------------|---------------------------|------------------|--------------------|
 C|------------------|---------------------------|------------------|--------------------|
 G|-2-2-2----2-2-2---|---2-2-2-2-2-2-2-2-2-2-2-2-|-2-2-2----2-2-2---|---2-2-2-2-2--2--0--|
    * * *    * * *       * * * * * * * * * * * *   * * *    * * *       * * * * *  *  * 
 C|------------------|---------------------------|------------------|--------------------|
 G|------------------|---------------------------|------------------|-----------------3--|
D#|------------------|---------------------------|------------------|-----------------3--|
A#|------------------|---------------------------|------------------|--------------------|
 F|------------------|---------------------------|------------------|--------------------|
 C|------------------|---------------------------|------------------|--------------------|
 G|-2-2-2----2-2-2---|---2-2-2-2-2-2-2-2-2-2-2-2-|-2-2-2----2-2-2---|---2-2-2-2-2--2-----|
    * * *    * * *       * * * * * * * * * * * *   * * *    * * *       * * * * *  *

|--------------------------------------------------------------------------------------------------------|
|                                         VERSE 2 (01:22-01:40)                                          |
|--------------------------------------------------------------------------------------------------------|
                                              same as VERSE
|--------------------------------------------------------------------------------------------------------|
|                                       PRE-CHORUS 2 (01:40-01:50)                                       |
|--------------------------------------------------------------------------------------------------------|

Guitars 1 and 2 (w/ dist) 

 C|---------------------------|----------------------------|
 G|---------------------------|----------------------------|
D#|---------------------------|----------------------------|
A#|---------------------------|----------------------------|
 F|---------------------------|----------------------------|
 C|---------------------------|----------------------------|
 G|-5-4-4--4--5-4-4--4--4-----|-5-4-4--4--5-4-4--4--4------|
    * * *  *  * * *  *  *       * * *  *  * * *  *  * 

 C|---------------------------|----------------------------|
 G|---------------------------|----------------------------|
D#|---------------------------|----------------------------|
A#|---------------------------|----------------------------|
 F|---------------------------|----------------------------|
 C|---------------------------|----------------------------|
 G|-5-4-4--4--5-4-4--4--4-----|-5-5-5--5-5-5--5-5-5--5-5-5-|
    * * *  *  * * *  *  *       * * *  * * *  * * *  * * *

 C|---------------------------|----------------------------|
 G|---------------------------|----------------------------|
D#|---------------------------|----------------------------|
A#|---------------------------|----------------------------|
 F|---------------------------|----------------------------|
 C|---------------------------|----------------------------|
 G|-5-4-4--4--5-4-4--4--4-----|-5-4-4--4--5-4-4--4--4------|
    * * *  *  * * *  *  *       * * *  *  * * *  *  * 

 C|---------------------------|----------------------------|
 G|---------------------------|----------------------------|
D#|---------------------------|----------------------------|
A#|---------------------------|----------------------------|
 F|---------------------------|----------------------------|
 C|---------------------------|----------------------------|
 G|-5-4-4--4--5-4-4--4--4-----|-5--------------------------|
    * * *  *  * * *  *  *       *

|--------------------------------------------------------------------------------------------------------|
|                                          CHORUS (01:50-02:34)                                          |
|--------------------------------------------------------------------------------------------------------|

Guitars 1 and 2 (w/ dist)

 C|---------------------------------|--------------|---------------------------------|--------------|
 G|---------------------------------|--------------|---------------------------------|--------------|
D#|---------------------------------|--------------|---------------------------------|--------------|
A#|---------------------------------|-7----7----7--|---------------------------------|-7----7----7--|
 F|---------------------------------|-5----5----5--|---------------------------------|-5----5----5--|
 C|-3-3-3-3-3-3-3-3-3-3-3-3-3-3-3-3-|--------------|-2-2-2-2-2-2-2-2-2-2-2-2-2-2-2-2-|--------------|
 G|---------------------------------|--------------|---------------------------------|--------------|
    * * * * * * * * * * * * * * * *                  * * * * * * * * * * * * * * * * 

 C|---------------------------------|--------------|---------------------------------|--------------|
 G|---------------------------------|--------------|---------------------------------|--------------|
D#|---------------------------------|--------------|---------------------------------|--------------|
A#|---------------------------------|-5----5----5--|---------------------------------|--------------|
 F|---------------------------------|-3----3----3--|---------------------------------|-5----7----4--|
 C|-1-1-1-1-1-1-1-1-1-1-1-1-1-1-1-1-|--------------|-0-0-0-0-0-0-0-0-0-0-0-0-0-0-0-0-|-3----5----2--|
 G|---------------------------------|--------------|---------------------------------|--------------|
    * * * * * * * * * * * * * * * *                  * * * * * * * * * * * * * * * * 

 C|---------------------------------|--------------|---------------------------------|--------------|
 G|---------------------------------|--------------|---------------------------------|--------------|
D#|---------------------------------|--------------|---------------------------------|--------------|
A#|---------------------------------|-7----7----7--|---------------------------------|-7----7----7--|
 F|---------------------------------|-5----5----5--|---------------------------------|-5----5----5--|
 C|-3-3-3-3-3-3-3-3-3-3-3-3-3-3-3-3-|--------------|-2-2-2-2-2-2-2-2-2-2-2-2-2-2-2-2-|--------------|
 G|---------------------------------|--------------|---------------------------------|--------------|
    * * * * * * * * * * * * * * * *                  * * * * * * * * * * * * * * * * 

 C|---------------------------------|--------------|---------------------------------|--------------|
 G|---------------------------------|--------------|---------------------------------|--------------|
D#|---------------------------------|--------------|---------------------------------|--------------|
A#|---------------------------------|-5----5----5--|---------------------------------|--------------|
 F|---------------------------------|-3----3----3--|---------------------------------|--------------|
 C|-1-1-1-1-1-1-1-1-1-1-1-1-1-1-1-1-|--------------|-0-0-0-0-0-0-0-0-0-0-0-0-0-0-0-0-|-3----5----2--|
 G|---------------------------------|--------------|---------------------------------|-1----3----0--|
    * * * * * * * * * * * * * * * *                  * * * * * * * * * * * * * * * * 

 C|----------------------------|--------------|----------------------------|--------------|
 G|----------------------------|--------------|----------------------------|--------------|
D#|----------------------------|--------------|----------------------------|--------------|
A#|----------------------------|-7----7----7--|----------------------------|-7----7----7--|
 F|----------------------------|-5----5----5--|----------------------------|-5----5----5--|
 C|-3-3-3---3--3-3-3-3-3-3-3-3-|--------------|-2-2-2---2--2-2-2-2-2-2-2-2-|--------------|
 G|----------------------------|--------------|----------------------------|--------------|
    * * *   *  * * * * * * * *                  * * *   *  * * * * * * * * 
 C|----------------------------|--------------|----------------------------|--------------|
 G|----------------------------|--------------|----------------------------|--------------|
D#|----------------------------|--------------|----------------------------|--------------|
A#|----------------------------|-5----5----5--|----------------------------|--------------|
 F|----------------------------|-3----3----3--|----------------------------|-5----7----4--|
 C|-1-1-1---1--1-1-1-1-1-1-1-1-|--------------|-0-0-0---0--0-0-0-0-0-0-0-0-|-3----5----2--|
 G|----------------------------|--------------|----------------------------|--------------|
    * * *   *  * * * * * * * *                  * * *   *  * * * * * * * * 
 C|----------------------------|--------------|----------------------------|--------------|
 G|----------------------------|--------------|----------------------------|--------------|
D#|----------------------------|--------------|----------------------------|--------------|
A#|----------------------------|-7----7----7--|----------------------------|-7----7----7--|
 F|----------------------------|-5----5----5--|----------------------------|-5----5----5--|
 C|-3-3-3---3--3-3-3-3-3-3-3-3-|--------------|-2-2-2---2--2-2-2-2-2-2-2-2-|--------------|
 G|----------------------------|--------------|----------------------------|--------------|
    * * *   *  * * * * * * * *                  * * *   *  * * * * * * * * 
 C|----------------------------|--------------|----------------------------|--------------|--------------|
 G|----------------------------|--------------|----------------------------|--------------|--------------|
D#|----------------------------|--------------|----------------------------|--------------|--------------|
A#|----------------------------|-5----5----5--|----------------------------|--------------|--------------|
 F|----------------------------|-3----3----3--|----------------------------|--------------|--------------|
 C|-1-1-1---1--1-1-1-1-1-1-1-1-|--------------|-0-0-0---0--0-0-0-0-0-0-0-0-|-3----5----2--|-5----6----8--|
 G|----------------------------|--------------|----------------------------|-1----3----0--|-3----4----6--|
    * * *   *  * * * * * * * *                  * * *   *  * * * * * * * * 

 C|--------------|--------------|
 G|--------------|--------------|
D#|--------------|--------------| x3
A#|--------------|--------------|
 F|--------------|--------------|
 C|-3----5----2--|-5----6----8--|
 G|-1----3----0--|-3----4----6--|

|--------------------------------------------------------------------------------------------------------|
|                                          BRIDGE (02:34-03:20)                                          |
|--------------------------------------------------------------------------------------------------------|

Guitars 1 and 2 (w/ dist)

 C|------------------------|-------------------------|------------------------|------------------------|
 G|------------------------|-------------------------|------------------------|------------------------|
D#|------------------------|-------------------------|------------------------|------------------------|
A#|------------------------|-------------------------|------------------------|-------------6-s7--7--7-|
 F|------------------------|-------------------------|------------------------|-------------x--x--x--x-|
 C|------------------------|-------------------------|------------------------|-------------4-s5--5--5-|
 G|-0-h1--0--1-p0--0--1-p0-|-0--1-p0--0--1-p0--0-0-0-|-0-h1--0--1-p0--0--1-p0-|-0--1-p0--0-------------|
          *        *         *        *        * * *         *        *         *        *

 C|------------------------|-------------------------|---------------------------|---------------------|
 G|------------------------|-------------------------|---------------------------|---------------------|
D#|------------------------|-------------------------|---------------------------|---------------------|
A#|------------------------|-------------------------|---------------------------|---------------------|
 F|------------------------|-------------------------|---------------------------|---------------------|
 C|------------------------|-------------------------|---------------------------|---------------------|
 G|-0-h1--0--1-p0--0--1-p0-|-0--1-p0--0--1-p0--0-0-0-|-0-h1--0--1-p0--0--1-0-0-0-|-0--1-0-0-0-0--4-----|
          *        *         *        *        * * *         *        *  * * * *   *  * * * * *  *

 C|------------------------|-------------------------|------------------------|------------------------|
 G|------------------------|-------------------------|------------------------|------------------------|
D#|------------------------|-------------------------|------------------------|------------------------|
A#|------------------------|-------------------------|------------------------|-------------6-s7--7--7-|
 F|------------------------|-------------------------|------------------------|-------------x--x--x--x-|
 C|------------------------|-------------------------|------------------------|-------------4-s5--5--5-|
 G|-0-h1--0--1-p0--0--1-p0-|-0--1-p0--0--1-p0--0-0-0-|-0-h1--0--1-p0--0--1-p0-|-0--1-p0--0-------------|
          *        *         *        *        * * *         *        *         *        *

 C|------------------------|-------------------------|------------------------|------------------------|
 G|------------------------|-------------------------|------------------------|------------------------|
D#|------------------------|-------------------------|------------------------|------------------------|
A#|------------------------|-------------------------|------------------------|------------------------|
 F|------------------------|-------------------------|------------------------|------------------------|
 C|------------------------|-------------------------|------------------------|------------------------|
 G|-0-h1--0--1-p0--0--1-p0-|-0--1-p0--0--1-p0--0-0-0-|-0-h1--0--1-p0--0--1-p0-|-0--1-p0--0--3-3-3-3-4--|
          *        *         *        *        * * *         *        *         *        *  * * * * *

 C|----------------------|----------------------|     |----------------------|----------------------|
 G|----------------------|----------------------|     |----------------------|----------------------|
D#|----------------------|----------------------|     |----------------------|----------------------|
A#|----------------------|----------------------| x3  |----------------------|----------------------|
 F|----------4-----------|----3------------1-p0-|     |----------4-----------|----3------1-p0--1-p0-|
 C|----------------------|----------------------|     |----------------------|----------------------|
 G|-0-h1--0------0--0-h1-|-0------0--0-h1-------|     |-0-h1--0------0--0-h1-|-0------0-------------|
          *      *         *      *                           *      *         *      *

 C|----------------------|----------------------|     |----------------------|----------------------|
 G|----------------------|----------------------|     |----------------------|----------------------|
D#|----------------------|----------------------|     |----------------------|----------------------|
A#|----------6-----------|----5-----------------| x3  |----------6-----------|----5-----------------|
 F|----------4-----------|----3------------1-p0-|     |----------4-----------|----3------1-p0--1-p0-|
 C|----------------------|----------------------|     |----------------------|----------------------|
 G|-0-h1--0------0--0-h1-|-0------0--0-h1-------|     |-0-h1--0------0--0-h1-|-0------0-------------|
          *      *         *      *                           *      *         *      *

after that, 7 bars without guitars, then:

 C|--------------|---------------|
 G|--------------|---------------|
D#|--------------|---------------|
A#|--------------|---------------|
 F|--------------|---------------|
 C|-3----5----2--|-5----6--------|
 G|-1----3----0--|-3----4--------|

|--------------------------------------------------------------------------------------------------------|
|                                         CHORUS 2 (03:20-04:22)                                         |
|--------------------------------------------------------------------------------------------------------|

Guitars 1 and 2 (w/ dist)

 C|---------------------------------|--------------|---------------------------------|--------------|
 G|---------------------------------|--------------|---------------------------------|--------------|
D#|---------------------------------|--------------|---------------------------------|--------------|
A#|---------------------------------|-7----7----7--|---------------------------------|-7----7----7--|
 F|---------------------------------|-5----5----5--|---------------------------------|-5----5----5--|
 C|-3-3-3-3-3-3-3-3-3-3-3-3-3-3-3-3-|--------------|-2-2-2-2-2-2-2-2-2-2-2-2-2-2-2-2-|--------------|
 G|---------------------------------|--------------|---------------------------------|--------------|
    * * * * * * * * * * * * * * * *                  * * * * * * * * * * * * * * * * 

 C|---------------------------------|--------------|---------------------------------|--------------|
 G|---------------------------------|--------------|---------------------------------|--------------|
D#|---------------------------------|--------------|---------------------------------|--------------|
A#|---------------------------------|-5----5----5--|---------------------------------|--------------|
 F|---------------------------------|-3----3----3--|---------------------------------|-5----7----4--|
 C|-1-1-1-1-1-1-1-1-1-1-1-1-1-1-1-1-|--------------|-0-0-0-0-0-0-0-0-0-0-0-0-0-0-0-0-|-3----5----2--|
 G|---------------------------------|--------------|---------------------------------|--------------|
    * * * * * * * * * * * * * * * *                  * * * * * * * * * * * * * * * * 

 C|---------------------------------|--------------|---------------------------------|--------------|
 G|---------------------------------|--------------|---------------------------------|--------------|
D#|---------------------------------|--------------|---------------------------------|--------------|
A#|---------------------------------|-7----7----7--|---------------------------------|-7----7----7--|
 F|---------------------------------|-5----5----5--|---------------------------------|-5----5----5--|
 C|-3-3-3-3-3-3-3-3-3-3-3-3-3-3-3-3-|--------------|-2-2-2-2-2-2-2-2-2-2-2-2-2-2-2-2-|--------------|
 G|---------------------------------|--------------|---------------------------------|--------------|
    * * * * * * * * * * * * * * * *                  * * * * * * * * * * * * * * * * 

 C|---------------------------------|--------------|---------------------------------|--------------|
 G|---------------------------------|--------------|---------------------------------|--------------|
D#|---------------------------------|--------------|---------------------------------|--------------|
A#|---------------------------------|-5----5----5--|---------------------------------|--------------|
 F|---------------------------------|-3----3----3--|---------------------------------|--------------|
 C|-1-1-1-1-1-1-1-1-1-1-1-1-1-1-1-1-|--------------|-0-0-0-0-0-0-0-0-0-0-0-0-0-0-0-0-|-3----5----2--|
 G|---------------------------------|--------------|---------------------------------|-1----3----0--|
    * * * * * * * * * * * * * * * *                  * * * * * * * * * * * * * * * * 

 C|----------------------------|--------------|----------------------------|--------------|
 G|----------------------------|--------------|----------------------------|--------------|
D#|----------------------------|--------------|----------------------------|--------------|
A#|----------------------------|-7----7----7--|----------------------------|-7----7----7--|
 F|----------------------------|-5----5----5--|----------------------------|-5----5----5--|
 C|-3-3-3---3--3-3-3-3-3-3-3-3-|--------------|-2-2-2---2--2-2-2-2-2-2-2-2-|--------------|
 G|----------------------------|--------------|----------------------------|--------------|
    * * *   *  * * * * * * * *                  * * *   *  * * * * * * * * 
 C|----------------------------|--------------|----------------------------|--------------|
 G|----------------------------|--------------|----------------------------|--------------|
D#|----------------------------|--------------|----------------------------|--------------|
A#|----------------------------|-5----5----5--|----------------------------|--------------|
 F|----------------------------|-3----3----3--|----------------------------|-5----7----4--|
 C|-1-1-1---1--1-1-1-1-1-1-1-1-|--------------|-0-0-0---0--0-0-0-0-0-0-0-0-|-3----5----2--|
 G|----------------------------|--------------|----------------------------|--------------|
    * * *   *  * * * * * * * *                  * * *   *  * * * * * * * * 
 C|----------------------------|--------------|----------------------------|--------------|
 G|----------------------------|--------------|----------------------------|--------------|
D#|----------------------------|--------------|----------------------------|--------------|
A#|----------------------------|-7----7----7--|----------------------------|-7----7----7--|
 F|----------------------------|-5----5----5--|----------------------------|-5----5----5--|
 C|-3-3-3---3--3-3-3-3-3-3-3-3-|--------------|-2-2-2---2--2-2-2-2-2-2-2-2-|--------------|
 G|----------------------------|--------------|----------------------------|--------------|
    * * *   *  * * * * * * * *                  * * *   *  * * * * * * * * 
 C|----------------------------|--------------|----------------------------|--------------|
 G|----------------------------|--------------|----------------------------|--------------|
D#|----------------------------|--------------|----------------------------|--------------|
A#|----------------------------|-5----5----5--|----------------------------|--------------|
 F|----------------------------|-3----3----3--|----------------------------|--------------|
 C|-1-1-1---1--1-1-1-1-1-1-1-1-|--------------|-0-0-0---0--0-0-0-0-0-0-0-0-|-3----5----2--|
 G|----------------------------|--------------|----------------------------|-1----3----0--|
    * * *   *  * * * * * * * *                  * * *   *  * * * * * * * * 

 C|--------------|
 G|--------------|
D#|--------------|
A#|--------------|
 F|--------------|
 C|-5----6----8--|
 G|-3----4----6--|
    
 C|--------------|--------------|
 G|--------------|--------------|
D#|--------------|--------------| x3
A#|--------------|--------------|
 F|--------------|--------------|
 C|-3----5----2--|-5----6----8--|
 G|-1----3----0--|-3----4----6--|
   
|--------------------------------------------------------------------------------------------------------|
|                                          OUTRO (04:22-04:56)                                           |
|--------------------------------------------------------------------------------------------------------|

Guitars 1 and 2 (w/ dist)

     .................................
 C|--------|--------|--------|--------|
 G|--------|--------|--------|--------|
D#|--------|--------|--------|--------|
A#|-5------|--------|--------|--------|
 F|-5------|--------|--------|--------|
 C|-3------|--------|--------|--------|
 G|--------|--------|--------|--------|


**********************************************************************************************************
*                                            6. GENEXUS                                                  *
**********************************************************************************************************

|--------------------------------------------------------------------------------------------------------|
|                                          INTRO (00:00-00:38)                                           |
|--------------------------------------------------------------------------------------------------------|

Guitars 1 and 2 (w/ dist)

   П V П  П  П V П  П V П  П V   П  П  П V П  П V П  П V П
E|-----------------------------|---------------------------|
B|-----------------------------|---------------------------|
G|-----------------------------|---------------------------|
D|-----------------------------|---------------------------|
A|-----------------------------|---------------------------|
E|-----------------------------|---------------------------|
B|-2-2-2--2--3-3-3--2-2-2--2-2-|-2--2--3-3-3--3-3-3--2-2-2-|
   * * *  *  * * *  * * *  * *   *  *  * * *  * * *  * * *

   П V П  П  П V П  П V П   П V  П  П  П V П  П V П  П V П V
E|-----------------------------|-----------------------------|
B|-----------------------------|-----------------------------|
G|-----------------------------|-----------------------------|
D|-----------------------------|-----------------------------|
A|-----------------------------|-----------------------------|
E|-----------------------------|-----------------------------|
B|-2-2-2--2--3-3-3--2-2-2--2-2-|-2--2--3-3-3--3-3-3--5-5-5-5-|
   * * *  *  * * *  * * *  * *   *  *  * * *  * * *  * * * *

   П V П  П  П V П  П V П  П V   П  П  П V П  П V П  П V П
E|-----------------------------|---------------------------|
B|-----------------------------|---------------------------|
G|-----------------------------|---------------------------|
D|-----------------------------|---------------------------|
A|-----------------------------|---------------------------|
E|-----------------------------|---------------------------|
B|-2-2-2--2--3-3-3--2-2-2--2-2-|-2--2--3-3-3--3-3-3--2-2-2-|
   * * *  *  * * *  * * *  * *   *  *  * * *  * * *  * * *

   П V П  П  П V П  П V П  П V   П  П  П V П  П V П  П 
E|-----------------------------|-------------------------|
B|-----------------------------|-------------------------|
G|-----------------------------|-------------------------|
D|-----------------------------|-------------------------|
A|-----------------------------|-------------------------|
E|-----------------------------|-------------------------|
B|-2-2-2--2--3-3-3--2-2-2--2-2-|-2--2--3-3-3--3-3-3--5---|
   * * *  *  * * *  * * *  * *   *  *  * * *  * * *  *

   П V П  П  П V П  П V П  П V   П  П  П V П  П V П  П V П
E|-----------------------------|---------------------------|
B|-----------------------------|---------------------------|
G|-----------------------------|---------------------------|
D|-----------------------------|---------------------------|
A|-----------------------------|---------------------------|
E|-----------------------------|---------------------------|\
B|-2-2-2--2--3-3-3--2-2-2--2-2-|-2--2--3-3-3--3-3-3--2-2-2-| \
   * * *  *  * * *  * * *  * *   *  *  * * *  * * *  * * *    \
                                                               x4
   П V П  П  П V П  П V П  П V   П  П  П V П  П V П  П V П V   /
E|-----------------------------|-----------------------------|/
B|-----------------------------|-----------------------------|
G|-----------------------------|-----------------------------|
D|-----------------------------|-----------------------------|
A|-----------------------------|-----------------------------|
E|-----------------------------|-----------------------------|
B|-2-2-2--2--3-3-3--2-2-2--2-2-|-2--2--3-3-3--3-3-3--5-5-5-5-|
   * * *  *  * * *  * * *  * *   *  *  * * *  * * *  * * * *

|--------------------------------------------------------------------------------------------------------|
|                                          VERSE (00:38-01:04)                                           |
|--------------------------------------------------------------------------------------------------------|

Guitars 1 and 2 (w/ dist)

   П V П  П  П V П  П V П  П V   П       П  П V П  П V П
E|-----------------------------|--------------------------|
B|-----------------------------|--------------------------|
G|-----------------------------|--------------------------| x3
D|-----------------------------|--------------------------|
A|-----------------------------|--------------------------|
E|-----------------------------|--------------------------|
B|-2-2-2--2--3-3-3--2-2-2--2-2-|-2-------2--3-3-3--3-3-3--|
   * * *  *  * * *  * * *  * *   *       *  * * *  * * *

   П V П  П  П V П  П V П  П V   П       П  П V П  П V П V
E|-----------------------------|---------------------------|
B|-----------------------------|---------------------------|
G|-----------------------------|---------------------------|
D|-----------------------------|---------------------------|
A|-----------------------------|---------------------------|
E|-----------------------------|---------------------------|
B|-2-2-2--2--3-3-3--2-2-2--2-2-|-2-------2--3-3-3--5-5-5-5-|
   * * *  *  * * *  * * *  * *   *       *  * * *  * * * *

   П V П  П  П V П  П V П  П V   П       П  П V П  П V П
E|-----------------------------|--------------------------|
B|-----------------------------|--------------------------|
G|-----------------------------|--------------------------|
D|-----------------------------|--------------------------|
A|-----------------------------|--------------------------|
E|-----------------------------|--------------------------|
B|-2-2-2--2--3-3-3--2-2-2--2-2-|-2-------2--3-3-3--3-3-3--|
   * * *  *  * * *  * * *  * *   *       *  * * *  * * *

   П V П  П  П V П  П V П  П V   П  П  П V П  П V П  П V П V
E|-----------------------------|-----------------------------|
B|-----------------------------|-----------------------------|
G|-----------------------------|-----------------------------|
D|-----------------------------|-----------------------------|
A|-----------------------------|-----------------------------|
E|-----------------------------|-----------------------------|
B|-2-2-2--2--3-3-3--2-2-2--2-2-|-2--2--3-3-3--3-3-3--5-5-5-5-|
   * * *  *  * * *  * * *  * *   *  *  * * *  * * *  * * * *

   П V П  П  П V П  П V П  П V   П       П  П V П V П V П V
E|-----------------------------|----------------------------|
B|-----------------------------|----------------------------|
G|-----------------------------|----------------------------|
D|-----------------------------|----------------------------|
A|-----------------------------|----------------------------|
E|-----------------------------|----------------------------|
B|-2-2-2--2--3-3-3--2-2-2--2-2-|-2-------2--3-3-3-3-3-3-3-3-|
   * * *  *  * * *  * * *  * *   *       *  * * * * * * * *

   П V П  П  П V П  П V П  П V   П       П  П V П V П V П V
E|-----------------------------|----------------------------|
B|-----------------------------|----------------------------|
G|-----------------------------|----------------------------|
D|-----------------------------|----------------------------|
A|-----------------------------|----------------------------|
E|-----------------------------|----------------------------|
B|-2-2-2--2--3-3-3--2-2-2--2-2-|-2-------2--3-3-3-3-5-5-5-5-|
   * * *  *  * * *  * * *  * *   *       *  * * * * * * * *

   П V П  П  П V П  П V П  П V   П       П  П V П V П V П V
E|-----------------------------|----------------------------|
B|-----------------------------|----------------------------|
G|-----------------------------|----------------------------|
D|-----------------------------|----------------------------|
A|-----------------------------|----------------------------|
E|-----------------------------|----------------------------|
B|-2-2-2--2--3-3-3--2-2-2--2-2-|-2-------2--3-3-3-3-3-3-3-3-|
   * * *  *  * * *  * * *  * *   *       *  * * * * * * * *

   П V П  П  П V П  П V П  П V   П  П  П V П  П V П  П V П V 
E|-----------------------------|-----------------------------|
B|-----------------------------|-----------------------------|
G|-----------------------------|-----------------------------|
D|-----------------------------|-----------------------------|
A|-----------------------------|-----------------------------|
E|-----------------------------|-----------------------------|
B|-2-2-2--2--3-3-3--2-2-2--2-2-|-2--2--3-3-3--3-3-3--5-5-5-5-|
   * * *  *  * * *  * * *  * *   *  *  * * *  * * *  * * * *
                              
|--------------------------------------------------------------------------------------------------------|
|                                        PRE-CHORUS (01:04-01:24)                                        |
|--------------------------------------------------------------------------------------------------------|

Guitars 1 and 2 (w/ dist)

   П V П V П V П   П   П     П  П   П V П V П    П V П V П V П   П   П     П  V   П V П V П
E|-----------------------|---------------------|-----------------------|---------------------|
B|-----------------------|---------------------|-----------------------|---------------------|
G|-----------------------|---------------------|-----------------------|---------------------|
D|-----------------------|---------------------|-----------------------|---------------------|
A|-----------------------|---------------------|-----------------------|---------------------|
E|-------------5---4---7-|------7-----------7--|-------------5---4---8-|------8-----------10-|
B|-2-2-2-2-2-2-3---2---5-|---5--5---5-5-5-5-5--|-2-2-2-2-2-2-3---2---6-|---6--6---8-8-8-8-8--|
   * * * * * *               *      * * * *      * * * * * *               *      * * * *

   П V П V П V П   П   П     П  П   П V П V П    П V П V П V П   П   П     П  V   П V П V П
E|-----------------------|---------------------|-----------------------|---------------------|
B|-----------------------|---------------------|-----------------------|---------------------|
G|-----------------------|---------------------|-----------------------|---------------------|
D|-----------------------|---------------------|-----------------------|---------------------|
A|-----------------------|---------------------|-----------------------|---------------------|
E|-------------5---4---7-|------7-----------7--|-------------8---7---5-|------5-----------5--|
B|-2-2-2-2-2-2-3---2---5-|---5--5---5-5-5-5-5--|-6-6-6-6-6-6-6---5---3-|---3--3---3-3-3-3-3--|
   * * * * * *               *      * * * *      * * * * * *               *      * * * *

   П V П V П V П   П   П     П  П   П V П V П    П V П V П V П   П   П     П  V   П V П V П
E|-----------------------|---------------------|-----------------------|---------------------|
B|-----------------------|---------------------|-----------------------|---------------------|
G|-----------------------|---------------------|-----------------------|---------------------|
D|-----------------------|---------------------|-----------------------|---------------------|
A|-----------------------|---------------------|-----------------------|---------------------|
E|-------------5---4---7-|------7-----------7--|-------------5---4---8-|------8-----------10-|
B|-2-2-2-2-2-2-3---2---5-|---5--5---5-5-5-5-5--|-2-2-2-2-2-2-3---2---6-|---6--6---8-8-8-8-8--|
   * * * * * *               *      * * * *      * * * * * *               *      * * * * 

   П V П V П V П   П   П     П  П   П V П V П    П V П V П V П   П   П     П  П  П  П   П
E|-----------------------|---------------------|-----------------------|---------------------|
B|-----------------------|---------------------|-----------------------|---------------------|
G|-----------------------|---------------------|-----------------------|---------------------|
D|-----------------------|---------------------|-----------------------|---------------------|
A|-----------------------|---------------------|-----------------------|---------------------|
E|-------------5---4---7-|------7-----------7--|-------------5---4---2-|---2--2--2--2---2----|
B|-2-2-2-2-2-2-3---2---5-|---5--5---5-5-5-5-5--|-3-3-3-3-3-3-3---2---0-|---0--0--0--0---0----|
   * * * * * *               *      * * * *      * * * * * *               *  *  *  *   *

|--------------------------------------------------------------------------------------------------------|
|                                          CHORUS (01:24-01:48)                                          |
|--------------------------------------------------------------------------------------------------------|

Guitars 1 and 2 (w/ dist)

   П V П V П V П V П V П V П V П V   П V П V П V П V П V П V П V П V   П V П V П V П V П V П V П V П V 
E|---------------------------------|---------------------------------|---------------------------------|
B|---------------------------------|---------------------------------|---------------------------------|
G|---------------------------------|---------------------------------|---------------------------------|
D|---------------------------------|---------------------------------|---------------------------------|
A|---------------------------------|---------------------------------|---------------------------------|
E|---------------------------------|---------------------------------|---------------------------------|
B|-5-5-5-5-5-5-2-2-2-2-2-2-2-2-2-2-|-2-2-2-2-2-2-2-2-2-2-2-2-2-2-2-2-|-5-5-5-5-5-5-2-2-2-2-2-2-3-3-3-3-|

   П V П V П V П V П V П V П V П V   П V П V П V П V П V П V П V П V   П V П V П V П V П V П V П V П V 
E|---------------------------------|---------------------------------|---------------------------------|
B|---------------------------------|---------------------------------|---------------------------------|
G|---------------------------------|---------------------------------|---------------------------------|
D|---------------------------------|---------------------------------|---------------------------------|
A|---------------------------------|---------------------------------|---------------------------------|
E|---------------------------------|---------------------------------|---------------------------------|
B|-3-3-3-3-3-3-3-3-2-2-2-2-3-3-3-3-|-5-5-5-5-5-5-2-2-2-2-2-2-2-2-2-2-|-2-2-2-2-2-2-2-2-2-2-2-2-2-2-2-2-|
 
   П    П    П       П    П   П
E|---------------|----------------|
B|---------------|----------------|
G|---------------|----------------|
D|---------------|----------------|
A|---------------|----------------|
E|-7----4----2---|---2----5-------|
B|-5----2----0---|---0----3---0---|
                              *

   П V П V П V П V П V П V П V П V   П V П V П V П V П V П V П V П V   П V П V П V П V П V П V П V П V 
E|---------------------------------|---------------------------------|---------------------------------|
B|---------------------------------|---------------------------------|---------------------------------|
G|---------------------------------|---------------------------------|---------------------------------|
D|---------------------------------|---------------------------------|---------------------------------|
A|---------------------------------|---------------------------------|---------------------------------|
E|---------------------------------|---------------------------------|---------------------------------|
B|-5-5-5-5-5-5-2-2-2-2-2-2-2-2-2-2-|-2-2-2-2-2-2-2-2-2-2-2-2-2-2-2-2-|-5-5-5-5-5-5-2-2-2-2-2-2-3-3-3-3-|

   П V П V П V П V П V П V П V П V   П V П V П V П V П V П V П V П V   П V П V П V П V П V П V П V П V 
E|---------------------------------|---------------------------------|---------------------------------|
B|---------------------------------|---------------------------------|---------------------------------|
G|---------------------------------|---------------------------------|---------------------------------|
D|---------------------------------|---------------------------------|---------------------------------|
A|---------------------------------|---------------------------------|---------------------------------|
E|---------------------------------|---------------------------------|---------------------------------|
B|-3-3-3-3-3-3-3-3-2-2-2-2-3-3-3-3-|-5-5-5-5-5-5-2-2-2-2-2-2-2-2-2-2-|-2-2-2-2-2-2-2-2-2-2-2-2-2-2-2-2-|

   П    П    П       П    П   П     П    П    П       П    П   П
E|---------------|----------------|---------------|----------------|
B|---------------|----------------|---------------|----------------|
G|---------------|----------------|---------------|----------------|
D|---------------|----------------|---------------|----------------|
A|---------------|----------------|---------------|----------------|
E|-7----4----2---|---2----5---4---|-7----4----2---|---2----5---7---|
B|-5----2----0---|---0----3---2---|-5----2----0---|---0----3---5---|

|--------------------------------------------------------------------------------------------------------|
|                                        POST-CHORUS (01:48-02:08)                                       |
|--------------------------------------------------------------------------------------------------------|

Guitars 1 and 2 (w/ dist)

   П V П  П  П V П  П V П  П V   П  П  П V П  П V П  П V П
E|-----------------------------|---------------------------|
B|-----------------------------|---------------------------|
G|-----------------------------|---------------------------|
D|-----------------------------|---------------------------|
A|-----------------------------|---------------------------|
E|-----------------------------|---------------------------|\
B|-2-2-2--2--3-3-3--2-2-2--2-2-|-2--2--3-3-3--3-3-3--2-2-2-| \
   * * *  *  * * *  * * *  * *   *  *  * * *  * * *  * * *    \
                                                               x4
   П V П  П  П V П  П V П  П V   П  П  П V П  П V П  П V П V   /
E|-----------------------------|-----------------------------|/
B|-----------------------------|-----------------------------|
G|-----------------------------|-----------------------------|
D|-----------------------------|-----------------------------|
A|-----------------------------|-----------------------------|
E|-----------------------------|-----------------------------|
B|-2-2-2--2--3-3-3--2-2-2--2-2-|-2--2--3-3-3--3-3-3--5-5-5-5-|
   * * *  *  * * *  * * *  * *   *  *  * * *  * * *  * * * *

|--------------------------------------------------------------------------------------------------------|
|                                         VERSE 2 (02:08-02:34)                                          |
|--------------------------------------------------------------------------------------------------------|
                                              same as VERSE
|--------------------------------------------------------------------------------------------------------|
|                                       PRE-CHORUS 2 (02:34-02:54)                                       |
|--------------------------------------------------------------------------------------------------------|
                                           same as PRE-CHORUS
|--------------------------------------------------------------------------------------------------------|
|                                         CHORUS 2 (02:54-03:18)                                         |
|--------------------------------------------------------------------------------------------------------|
                                              same as CHORUS
|--------------------------------------------------------------------------------------------------------|
|                                          BRIDGE (03:18-04:00)                                          |
|--------------------------------------------------------------------------------------------------------|

I. Guitar 1 (w/ dist) - fade in

   П   П  П   П   П     П  П   П   П      П  П  П  П   П  П  П     П  V  П  П V П V П V П V 
E|------------------|-------------------|----------------------|----------------------------|
B|------------------|-------------------|----------------------|----------------------------|
G|------------------|-------------------|----------------------|----------------------------|
D|------------------|-------------------|----------------------|----------------------------|
A|------------------|-------------------|----------------------|----------------------------|
E|------------------|-------------------|----------------------|----------------------------|
B|-2---2--3---2---2-|---2--3---3---2-h3-|-2--2--2--3---2--2--2-|---2--3--2--5-5-5-5-5-5-5-5-|
       *                *                 *  *  *      *  *        *  *  *  * * * * * * * *

   П   П  П   П   П     П  П   П   П      П  П  П  П   П  П  П
E|------------------|-------------------|----------------------|---------|
B|------------------|-------------------|----------------------|---------|
G|------------------|-------------------|----------------------|---------|
D|------------------|-------------------|----------------------|---------|
A|------------------|-------------------|----------------------|---------|
E|------------------|-------------------|----------------------|---------|
B|-2---2--3---2---2-|---2--3---3---2-h3-|-2--2--2--3---2--2--2-|---------|
       *                *                 *  *  *      *  *

II. Guitars 1 and 2 (w/ dist)

     П  V  П  П V П V П V П V 
E|----------------------------|
B|----------------------------|
G|----------------------------|
D|----------------------------|
A|----------------------------|
E|----------------------------|
B|---2--3--2--5-5-5-5-5-5-5-5-|
     *  *  *  * * * * * * * *

   П   П  П   П   П     П  П   П   П      П   П  П   П   П     П  П   П   П V П V
E|------------------|-------------------|------------------|----------------------|
B|------------------|-------------------|------------------|----------------------|
G|------------------|-------------------|------------------|----------------------|
D|------------------|-------------------|------------------|----------------------|
A|------------------|-------------------|------------------|----------------------|
E|-4------5---4---4-|------5---5---4-s5-|-4------5---4---4-|------5---5-----------|
B|-2---2--3---2---2-|---2--3---3---2-s3-|-2---2--3---2---2-|---2--3---3---5-5-5-5-|
       *                *                     *                *          * * * *

   П   П  П   П   П     П  П   П   П      П   П  П   П   П     П  П   П V П V П V П V
E|------------------|-------------------|------------------|--------------------------|
B|------------------|-------------------|------------------|--------------------------|
G|------------------|-------------------|------------------|--------------------------|
D|------------------|-------------------|------------------|--------------------------|
A|------------------|-------------------|------------------|--------------------------|
E|-4------5---4---4-|------5---5---4-s5-|-4------5---4---4-|------5-------------------|
B|-2---2--3---2---2-|---2--3---3---2-s3-|-2---2--3---2---2-|---2--3---5-5-5-5-5-5-5-5-|
       *                *                     *                *      * * * * * * * *

   П   П  П   П   П     П  П   П   П    П   П  П   П   П     П  П   П   П 
E|------------------|-----------------|------------------|-----------------|
B|------------------|-----------------|------------------|-----------------|
G|------------------|-----------------|------------------|-----------------| x3
D|------------------|-----------------|------------------|-----------------|
A|------------------|-----------------|------------------|-----------------|
E|-4------5---4---4-|------5---5---8--|-4------5---4---4-|------5---5---7--|
B|-2---2--3---2---2-|---2--3---3---6--|-2---2--3---2---2-|---2--3---3---5--|
       *                *                   *                *

   П   П  П   П   П     П  П   П   П    П   П  П   П   П     П  П  П  П 
E|------------------|-----------------|------------------|-----------------|
B|------------------|-----------------|------------------|-----------------|
G|------------------|-----------------|------------------|-----------------|
D|------------------|-----------------|------------------|-----------------|
A|------------------|-----------------|------------------|-----------------|
E|-4------5---4---4-|------5---5---8--|-4------5---4---2-|---2--2--2--2----|
B|-2---2--3---2---2-|---2--3---3---6--|-2---2--3---2---0-|---0--0--0--0----|
       *                *                   *                *  *  *  *

|--------------------------------------------------------------------------------------------------------|
|                                         CHORUS 3 (04:00-04:25)                                         |
|--------------------------------------------------------------------------------------------------------|

Guitars 1 and 2 (w/ dist)

   П V П V П V П V П V П V П V П V   П V П V П V П V П V П V П V П V   П V П V П V П V П V П V П V П V 
E|---------------------------------|---------------------------------|---------------------------------|
B|---------------------------------|---------------------------------|---------------------------------|
G|---------------------------------|---------------------------------|---------------------------------|
D|---------------------------------|---------------------------------|---------------------------------|
A|---------------------------------|---------------------------------|---------------------------------|
E|---------------------------------|---------------------------------|---------------------------------|
B|-5-5-5-5-5-5-2-2-2-2-2-2-2-2-2-2-|-2-2-2-2-2-2-2-2-2-2-2-2-2-2-2-2-|-5-5-5-5-5-5-2-2-2-2-2-2-3-3-3-3-|

   П V П V П V П V П V П V П V П V   П V П V П V П V П V П V П V П V   П V П V П V П V П V П V П V П V 
E|---------------------------------|---------------------------------|---------------------------------|
B|---------------------------------|---------------------------------|---------------------------------|
G|---------------------------------|---------------------------------|---------------------------------|
D|---------------------------------|---------------------------------|---------------------------------|
A|---------------------------------|---------------------------------|---------------------------------|
E|---------------------------------|---------------------------------|---------------------------------|
B|-3-3-3-3-3-3-3-3-2-2-2-2-3-3-3-3-|-5-5-5-5-5-5-2-2-2-2-2-2-2-2-2-2-|-2-2-2-2-2-2-2-2-2-2-2-2-2-2-2-2-|

   П    П    П       П    П   П
E|---------------|----------------|
B|---------------|----------------|
G|---------------|----------------|
D|---------------|----------------|
A|---------------|----------------|
E|-7----4----2---|---2----5-------|
B|-5----2----0---|---0----3---0---|
                              *

   П V П V П V П V П V П V П V П V   П V П V П V П V П V П V П V П V   П V П V П V П V П V П V П V П V 
E|---------------------------------|---------------------------------|---------------------------------|
B|---------------------------------|---------------------------------|---------------------------------|
G|---------------------------------|---------------------------------|---------------------------------|
D|---------------------------------|---------------------------------|---------------------------------|
A|---------------------------------|---------------------------------|---------------------------------|
E|---------------------------------|---------------------------------|---------------------------------|
B|-5-5-5-5-5-5-2-2-2-2-2-2-2-2-2-2-|-2-2-2-2-2-2-2-2-2-2-2-2-2-2-2-2-|-5-5-5-5-5-5-2-2-2-2-2-2-3-3-3-3-|

   П V П V П V П V П V П V П V П V   П V П V П V П V П V П V П V П V   П V П V П V П V П V П V П V П V 
E|---------------------------------|---------------------------------|---------------------------------|
B|---------------------------------|---------------------------------|---------------------------------|
G|---------------------------------|---------------------------------|---------------------------------|
D|---------------------------------|---------------------------------|---------------------------------|
A|---------------------------------|---------------------------------|---------------------------------|
E|---------------------------------|---------------------------------|---------------------------------|
B|-3-3-3-3-3-3-3-3-2-2-2-2-3-3-3-3-|-5-5-5-5-5-5-2-2-2-2-2-2-2-2-2-2-|-2-2-2-2-2-2-2-2-2-2-2-2-2-2-2-2-|

   П    П    П       П    П   П     П    П    П       П    П   П     П    П    П       П    П   П
E|---------------|----------------|---------------|----------------|---------------|----------------|
B|---------------|----------------|---------------|----------------|---------------|----------------|
G|---------------|----------------|---------------|----------------|---------------|----------------|
D|---------------|----------------|---------------|----------------|---------------|----------------|
A|---------------|----------------|---------------|----------------|---------------|----------------|
E|-7----4----2---|---2----5---4---|-7----4----2---|---2----5---4---|-7----4----2---|---2----5---7---|
B|-5----2----0---|---0----3---2---|-5----2----0---|---0----3---2---|-5----2----0---|---0----3---5---|

|--------------------------------------------------------------------------------------------------------|
|                                          OUTRO (04:25-04:48)                                           |
|--------------------------------------------------------------------------------------------------------|

Guitars 1 and 2 (w/ dist)

   П V П  П  П V П  П V П  П V   П  П  П V П  П V П  П V П
E|-----------------------------|---------------------------|
B|-----------------------------|---------------------------|
G|-----------------------------|---------------------------|
D|-----------------------------|---------------------------|
A|-----------------------------|---------------------------|
E|-----------------------------|---------------------------|\
B|-2-2-2--2--3-3-3--2-2-2--2-2-|-2--2--3-3-3--3-3-3--2-2-2-| \
   * * *  *  * * *  * * *  * *   *  *  * * *  * * *  * * *    \
                                                               x3
   П V П  П  П V П  П V П  П V   П  П  П V П  П V П  П V П V   /
E|-----------------------------|-----------------------------|/
B|-----------------------------|-----------------------------|
G|-----------------------------|-----------------------------|
D|-----------------------------|-----------------------------|
A|-----------------------------|-----------------------------|
E|-----------------------------|-----------------------------|
B|-2-2-2--2--3-3-3--2-2-2--2-2-|-2--2--3-3-3--3-3-3--5-5-5-5-|
   * * *  *  * * *  * * *  * *   *  *  * * *  * * *  * * * *

   П V П  П  П V П  П V П  П V   П  П  П V П  П V П  П V П
E|-----------------------------|---------------------------|
B|-----------------------------|---------------------------|
G|-----------------------------|---------------------------|
D|-----------------------------|---------------------------|
A|-----------------------------|---------------------------|
E|-----------------------------|---------------------------|
B|-2-2-2--2--3-3-3--2-2-2--2-2-|-2--2--3-3-3--3-3-3--2-2-2-|
   * * *  *  * * *  * * *  * *   *  *  * * *  * * *  * * *

   П V П  П  П V П  П V П  П V   П  П  П V П  П V П V П V П V
E|-----------------------------|------------------------------|
B|-----------------------------|------------------------------|
G|-----------------------------|------------------------------|
D|-----------------------------|------------------------------|
A|-----------------------------|------------------------------|
E|-----------------------------|------------------------------|
B|-2-2-2--2--3-3-3--2-2-2--2-2-|-2--2--3-2-2--5-5-5-5-5-5-5-5-|
   * * *  *  * * *  * * *  * *   *  *  * * *  * * * * * * * *


**********************************************************************************************************
*                                        7. CHURCH OF EXECUTION                                          *
**********************************************************************************************************

|--------------------------------------------------------------------------------------------------------|
|                                          INTRO (00:00-00:38)                                           |
|--------------------------------------------------------------------------------------------------------|

I. Guitar 1 (w/ clean)

    П     П  П     П     П   П  П     П    П     П  П     П     П   П  П   П V П V
 C|--------------------------------------|-----------------------------------------|
 G|--------------------------------------|-----------------------------------------|
D#|--------------------------------------|-----------------------------------------| x3
A#|--------------------------------------|-----------------------------------------|
 F|--------------------------------------|-----------------------------------------|
 C|--------------------------------------|-----------------------------------------|
 G|-3-p0--0--3-p0--0-----3---0--3-p0--0--|-3-p0--0--3-p0--0-----3---0--3b--0-0-0-0-|
          *                  *                   *                  *      * * * *

    П     П  П     П     П   П  П     П 
 C|--------------------------------------|-----------------------------------------|
 G|--------------------------------------|-----------------------------------------|
D#|--------------------------------------|-----------------------------------------|
A#|--------------------------------------|-----------------------------------------|
 F|--------------------------------------|-----------------------------------------|
 C|--------------------------------------|-----------------------------------------|
 G|-3-p0--0--3-p0--0-----3---0--3-p0--0--|-----------------------------------------|
          *                  *    

II. Guitars 1 and 2 (w/ dist)

    П     П  П     П     П   П  П     П    П     П  П     П     П   П  П   П V П V
 C|--------------------------------------|-----------------------------------------|
 G|--------------------------------------|-----------------------------------------|
D#|--------------------------------------|-----------------------------------------| x3
A#|--------------------------------------|-----------------------------------------|
 F|--------------------------------------|-----------------------------------------|
 C|--------------------------------------|-----------------------------------------|
 G|-3-p0--0--3-p0--0-----3---0--3-p0--0--|-3-p0--0--3-p0--0-----3---0--3---0-0-0-0-|
          *                  *                   *                  *      * * * *

    П     П  П     П     П   П  П     П    П     П  П     П     П   П  П   П
 C|--------------------------------------|-----------------------------------------|
 G|--------------------------------------|-----------------------------------------|
D#|--------------------------------------|-----------------------------------------|
A#|--------------------------------------|-----------------------------------------|
 F|--------------------------------------|-----------------------------------------|
 C|--------------------------------------|-----------------------------------------|
 G|-3-p0--0--3-p0--0-----3---0--3-p0--0--|-3-p0--0--3-p0--0-----3---0--3---0-------|
          *                  *                   *                  *      *

|--------------------------------------------------------------------------------------------------------|
|                                          VERSE (00:38-00:47)                                           |
|--------------------------------------------------------------------------------------------------------|

Guitars 1 and 2 (w/ clean and delay)

                    П   П  V                     П   П  V
 C|-----------|----------------|-----------|----------------|
 G|-----------|----------------|-----------|----------------|
D#|-----------|-----4---4--5~~~|-----------|-----4---4--5~~~|
A#|-----------|----------------|-----------|----------------|
 F|-----------|----------------|-----------|----------------|
 C|-----------|----------------|-----------|----------------|
 G|-----------|----------------|-----------|----------------|
                                     
|--------------------------------------------------------------------------------------------------------|
|                                        PRE-CHORUS (00:47-00:57)                                        |
|--------------------------------------------------------------------------------------------------------|

Guitars 1 and 2 (w/ dist)

    П     П  П     П     П   П  П     П    П     П  П     П     П   П  П   П V П V
 C|--------------------------------------|-----------------------------------------|
 G|--------------------------------------|-----------------------------------------|
D#|--------------------------------------|-----------------------------------------|
A#|--------------------------------------|-----------------------------------------|
 F|--------------------------------------|-----------------------------------------|
 C|--------------------------------------|-----------------------------------------|
 G|-3-p0--0--3-p0--0-----3---0--3-p0--0--|-3-p0--0--3-p0--0-----3---0--3---0-0-0-0-|
          *                  *                   *                  *      * * * *

    П     П  П     П     П   П  П     П    П     П  П     П     П   П  П   П  П  П  П  П
 C|--------------------------------------|------------------------------------------------|
 G|--------------------------------------|------------------------------------------------|
D#|--------------------------------------|------------------------------------------------|
A#|--------------------------------------|------------------------------------------------|
 F|--------------------------------------|------------------------------------------------|
 C|--------------------------------------|------------------------------------------------|
 G|-3-p0--0--3-p0--0-----3---0--3-p0--0--|-3-p0--0--3-p0--0-----3---0--3---0--0--0--0--0--|
          *                  *                   *                  *      *  *  *  *  *

|--------------------------------------------------------------------------------------------------------|
|                                          CHORUS (00:57-01:15)                                          |
|--------------------------------------------------------------------------------------------------------|

Guitars 1 and 2 (w/ dist)

    П  П   П  V   П    V   П  V     П  П   П  V   П    V   П  V
 C|-------------------------------|-------------------------------|
 G|-------------------------------|-------------------------------|
D#|---------------4----4------4---|---------------3----3------3---|
A#|-------------------------------|-------------------------------|
 F|-------------------------------|-------------------------------|
 C|-------------------------------|-------------------------------|
 G|-0--0---0--0------------0------|-0--0---0--0------------0------|
    *                      *        *                      *

    П  П   П  V   П    V   П  V     П  П   П  V   П    V   П  V
 C|-------------------------------|-------------------------------|
 G|-------------------------------|-------------------------------|
D#|---------------4----4------4---|---------------3----3---3--6---|
A#|-------------------------------|-------------------------------|
 F|-------------------------------|-------------------------------|
 C|-------------------------------|-------------------------------|
 G|-0--0---0--0------------0------|-0--0---0--0-------------------|
    *                      *        *  

    П  П   П  V   П    V   П  V     П  П   П  V   П    V   П  V
 C|-------------------------------|-------------------------------|
 G|-------------------------------|-------------------------------|
D#|---------------4----4------4---|---------------3----3------3---|
A#|-------------------------------|-------------------------------|
 F|-------------------------------|-------------------------------|
 C|-------------------------------|-------------------------------|
 G|-0--0---0--0------------0------|-0--0---0--0------------0------|
    *                      *        *                      *

    П  П   П  V   П    V   П  V   П    П  V   П   П  П
 C|----------------------------------|-----------------------|
 G|---------------------------4------|-----------------------|
D#|---------------4----4---4------4--|-----------------------|
A#|----------------------------------|-----------------------|
 F|----------------------------------|-----------------------|
 C|----------------------------------|-----------------------|
 G|-0--0---0--0----------------------|-0--0---0---0--0-------|
    *                                             *

|--------------------------------------------------------------------------------------------------------|
|                                       POST-CHORUS (01:15-01:24)                                        |
|--------------------------------------------------------------------------------------------------------|

Guitars 1 and 2 (w/ dist)

    П     П  П     П     П   П  П   П V П V   П     П  П     П     П   П  П   П V П V
 C|-----------------------------------------|-----------------------------------------|
 G|-----------------------------------------|-----------------------------------------|
D#|-----------------------------------------|-----------------------------------------|
A#|-----------------------------------------|-----------------------------------------|
 F|-----------------------------------------|-----------------------------------------|
 C|-----------------------------------------|-----------------------------------------|
 G|-3-p0--0--3-p0--0-----3---0--3---0-0-0-0-|-3-p0--0--3-p0--0-----3---0--3---0-0-0-0-|
          *                  *      * * * *         *                  *      * * * *

    П     П  П     П     П   П  П   П V П V   П     П  П     П     П   П  П   П
 C|-----------------------------------------|-----------------------------------------|
 G|-----------------------------------------|-----------------------------------------|
D#|-----------------------------------------|-----------------------------------------|
A#|-----------------------------------------|-----------------------------------------|
 F|-----------------------------------------|-----------------------------------------|
 C|-----------------------------------------|-----------------------------------------|
 G|-3-p0--0--3-p0--0-----3---0--3---0-0-0-0-|-3-p0--0--3-p0--0-----3---0--3---0-------|
          *                  *      * * * *         *                  *      *

|--------------------------------------------------------------------------------------------------------|
|                                         VERSE 2 (01:24-01:33)                                          |
|--------------------------------------------------------------------------------------------------------|
                                              same as VERSE
|--------------------------------------------------------------------------------------------------------|
|                                       PRE-CHORUS 2 (01:33-01:42)                                       |
|--------------------------------------------------------------------------------------------------------|

Guitars 1 and 2 (w/ dist)

    П     П  П     П     П   П  П     П    П     П  П     П     П   П  П   П V П V
 C|--------------------------------------|-----------------------------------------|
 G|--------------------------------------|-----------------------------------------|
D#|--------------------------------------|-----------------------------------------|
A#|--------------------------------------|-----------------------------------------|
 F|--------------------------------------|-----------------------------------------|
 C|--------------------------------------|-----------------------------------------|
 G|-3-p0--0--3-p0--0-----3---0--3-p0--0--|-3-p0--0--3-p0--0-----3---0--3---0-0-0-0-|
          *                  *                   *                  *      * * * *

    П     П  П     П     П   П  П     П    П     П  П     П     П   П  П   П 
 C|--------------------------------------|-----------------------------------------|
 G|--------------------------------------|-----------------------------------------|
D#|--------------------------------------|-----------------------------------------|
A#|--------------------------------------|-----------------------------------------|
 F|--------------------------------------|-----------------------------------------|
 C|--------------------------------------|-----------------------------------------|
 G|-3-p0--0--3-p0--0-----3---0--3-p0--0--|-3-p0--0--3-p0--0-----3---0--3---0-------|
          *                  *                   *                  *      *

|--------------------------------------------------------------------------------------------------------|
|                                         CHORUS 2 (01:42-02:00)                                         |
|--------------------------------------------------------------------------------------------------------|
                                              same as CHORUS
|--------------------------------------------------------------------------------------------------------|
|                                          BRIDGE (02:00-02:41)                                          |
|--------------------------------------------------------------------------------------------------------|

I. Guitars 1 and 2 (w/ dist)

    П  V   П  V  П  V   П  V   П  V  П  V     П  V   П  V  П  V   П  V   П  П V П V П V П V
 C|-----------------------------------------|-----------------------------------------------|
 G|-----------------------------------------|-----------------------------------------------|
D#|-----------------------------------------|-----------------------------------------------|
A#|-----------------------------------------|-----------------------------------------------|
 F|-----------------------------------------|-----------------------------------------------|
 C|-----------------------------------------|-----------------------------------------------|
 G|-4--4---4--5--4--4---4--4---4--5--4--4---|-4--4---4--5--4--4---4--4---4--5-5-5-5-5-5-5-5-|
    *  *   *  *  *  *   *  *   *  *  *  *     *  *   *  *  *  *   *  *   *  * * * * * * * *

    П  V   П  V  П  V   П  V   П  V  П  П V П V   П  V   П  V  П  V   П  V   П  V   П 
 C|---------------------------------------------|--------------------------------------|
 G|---------------------------------------------|--------------------------------------|
D#|---------------------------------------------|--------------------------------------| x4
A#|---------------------------------------------|--------------------------------------|
 F|---------------------------------------------|--------------------------------------|
 C|---------------------------------------------|-----------------------------------7--|
 G|-4--4---4--5--4--4---4--4---4--5--4--4-4-4-4-|-4--4---4--5--4--4---4--4---4--5---5--|
    *  *   *  *  *  *   *  *   *  *  *  * * * *   *  *   *  *  *  *   *  *   *  *   

    П   П  П   П  П   П  П   П  П
 C|----------------------------------|
 G|----------------------------------|
D#|----------------------------------| x4
A#|----------------------------------|
 F|----------------------------------|
 C|-7---6--7---6--7---6--7---6--7----|
 G|-5---4--5---4--5---4--5---4--5----|
        *      *      *      * 

II. Guitar 1 (w/ clean and delay)

    П  П   П  П   П    V   П  V     П  П   П  П   П    V   П  V
 C|-------------------------------|-------------------------------|
 G|-------------------------------|-------------------------------|
D#|---------------4----4------4---|---------------3----3------3---|
A#|-------------------------------|-------------------------------|
 F|-------------------------------|-------------------------------|
 C|-------------------------------|-------------------------------|
 G|-0--0---0--0------------0------|-0--0---0--0------------0------|
    *                      *        *                      *

    П  П   П  П   П    V   П  V   П    П  П   П  П   П 
 C|----------------------------------|-----------------------|
 G|---------------------------4------|-----------------------|
D#|---------------4----4----------4--|---------------3-------|
A#|----------------------------------|-----------------------|
 F|----------------------------------|-----------------------|
 C|----------------------------------|-----------------------|
 G|-0--0---0--0------------0---------|-0--0---0--0-----------|
    *                      *           *

|--------------------------------------------------------------------------------------------------------|
|                                         CHORUS 3 (02:41-02:59)                                         |
|--------------------------------------------------------------------------------------------------------|
                                             same as CHORUS
|--------------------------------------------------------------------------------------------------------|
|                                          OUTRO (02:59-03:21)                                           |
|--------------------------------------------------------------------------------------------------------|

Guitars 1 and 2 (w/ dist)

    П  П   П  V   П    V   П  V     П  П   П  V   П    V   П  V
 C|-------------------------------|-------------------------------|
 G|-------------------------------|-------------------------------|
D#|---------------4----4------4---|---------------3----3------3---|
A#|-------------------------------|-------------------------------|
 F|-------------------------------|-------------------------------|
 C|-------------------------------|-------------------------------|
 G|-0--0---0--0------------0------|-0--0---0--0------------0------|
    *                      *        *                      *

    П  П   П  V   П    V   П  V     П  П   П  V   П    V   П  V
 C|-------------------------------|-------------------------------|
 G|-------------------------------|-------------------------------|
D#|---------------4----4------4---|---------------3----3---3--6---|
A#|-------------------------------|-------------------------------|
 F|-------------------------------|-------------------------------|
 C|-------------------------------|-------------------------------|
 G|-0--0---0--0------------0------|-0--0---0--0-------------------|
    *                      *        *  

    П  П   П  V   П    V   П  V     П  П   П  V   П    V   П  V
 C|-------------------------------|-------------------------------|
 G|-------------------------------|-------------------------------|
D#|---------------4----4------4---|---------------3----3------3---|
A#|-------------------------------|-------------------------------|
 F|-------------------------------|-------------------------------|
 C|-------------------------------|-------------------------------|
 G|-0--0---0--0------------0------|-0--0---0--0------------0------|
    *                      *        *                      *

    П  П   П  V   П    V   П  V   П    П  V   П   П  П   П  V   П   П  П
 C|----------------------------------|-------------------------------------|
 G|---------------------------4------|-------------------------------------|
D#|---------------4----4---4------4--|-------------------------------------|
A#|----------------------------------|-------------------------------------|
 F|----------------------------------|-------------------------------------|
 C|----------------------------------|-------------------------------------|
 G|-0--0---0--0----------------------|-0--0---0---0--0---0--0---0---0--0---|
    *                                             *                 *

    П  V   П   П  П   П  П   П  П  П  П
 C|---------------------------------------|
 G|---------------------------------------|
D#|---------------------------------------|
A#|---------------------------------------|
 F|---------------------------------------|
 C|---------------------------------------|
 G|-0--0---0---0--0---0--0---0--0--0--0---|
               *      *  *   *  *  *  *


**********************************************************************************************************
*                                            8. REGENERATE                                               *
**********************************************************************************************************

|--------------------------------------------------------------------------------------------------------|
|                                          INTRO (00:00-00:44)                                           |
|--------------------------------------------------------------------------------------------------------|

Guitars 1 and 2 (w/ dist)

   П V П V П V П                 П           П        П V П V П V П                 П           П
D|------------------|-------|-----------|-----------|------------------|-------|-----------|-----------|
A|------------------|-------|-----------|-----------|------------------|-------|-----------|-----------|
F|------------------|-------|-----------|-----------|------------------|-------|-----------|-----------|
C|------------------|-------|-----------|-----------|------------------|-------|-----------|-----------|
G|------------------|-------|----4------|----2------|------------------|-------|----4------|----7------|
D|-------------5----|-------|----2------|----0------|-------------5----|-------|----2------|----5------|
A|-5-5-5-5-5-5-3----|-------|-----------|-----------|-5-5-5-5-5-5-3----|-------|-----------|-----------|
   * * * * * *                                        * * * * * *

   П V П V П V П     П V П V   П     П V П V П     П V П V   П  П  П  П     П V П V
D|---------------------------|-----------------------------|------------------------|
A|---------------------------|-----------------------------|------------------------|
F|---------------------------|-----------------------------|------------------------|
C|---------------------------|-----------------------------|------------------------|
G|---------------------------|-----------------------------|------------------------|
D|---------------------------|-----------------------------|------------------------|
A|-5-5-5-5-5-5-3-----3-3-3-3-|-3-----3-3-3-3-3-----3-3-3-3-|-3--3--3--7-----7-7-7-7-|
   * * * * * * *     * * * *   *     * * * * *     * * * *   *  *  *  *     * * * *
  
   П    П V П V П    П V П V   П  П  П  П     П V П V   П     П V П V П     П V П V
D|---------------------------|------------------------|-----------------------------|
A|---------------------------|------------------------|-----------------------------|
F|---------------------------|------------------------|-----------------------------|
C|---------------------------|------------------------|-----------------------------|
G|---------------------------|------------------------|-----------------------------|
D|---------------------------|------------------------|-----------------------------|
A|-7----7-7-7-7-5----5-5-5-5-|-5--5--5--3-----3-3-3-3-|-3-----3-3-3-3-3-----3-3-3-3-|
   *    * * * * *    * * * *   *  *  *  *     * * * *   *     * * * * *     * * * *

   П  П  П  П     П V П V   П    П V П
D|------------------------|------------------------|
A|------------------------|------------------------|
F|------------------------|------------------------|
C|------------------------|------------------------|
G|------------------------|----------9-------------|
D|------------------------|----------7-------------|
A|-3--3--3--7-----7-7-7-7-|-7----7-7---------------|
   *  *  *  *     * * * *   *    * *

   П  П  П V П  П V П  П V П   П V П  П V П  П V П V П V ----|
D|---------------------------|---------------------------|   |
A|---------------------------|---------------------------|   |
F|---------------------------|---------------------------|   |
C|---------------------------|---------------------------|   |
G|---------------------------|---------------------------|   |
D|-5-------------------------|---------------------------|   |
A|-3--3--3-3-3--3-3-3--3-3-3-|-3-3-3--3-3-3--3-3-3-3-3-3-|   |
      *  * * *  * * *  * * *   * * *  * * *  * * * * * *     |
                                                             | x3
   П  П  П V П  П V П  П V П   П V П  П V П  П V П V П V     |
D|---------------------------|---------------------------|   |
A|---------------------------|---------------------------|   |
F|---------------------------|---------------------------|   |
C|---------------------------|---------------------------|   |
G|---------------------------|---------------------------|   |
D|-9-------------------------|-7-------------------------|   |
A|-7---7--7-7-7--7-7-7-7-7-7-|-5---5--5-5-5--5-5-5-5-5-5-|   |
       *  * * *  * * * * * *       *  * * *  * * * * * * ----|

   П  П  П V П  П V П  П V П   П V П  П V П  П V П V П V
D|---------------------------|---------------------------|
A|---------------------------|---------------------------|
F|---------------------------|---------------------------|
C|---------------------------|---------------------------|
G|---------------------------|---------------------------|
D|-5-------------------------|---------------------------|
A|-3--3--3-3-3--3-3-3--3-3-3-|-3-3-3--3-3-3--3-3-3-3-3-3-|
      *  * * *  * * *  * * *   * * *  * * *  * * * * * *

   П   П  П V П  П V П  П V П   П V П V П V П V П  П  П
D|----------------------------|--------------------------|
A|----------------------------|--------------------------|
F|----------------------------|--------------------------|
C|----------------------------|--------------------------|
G|----------------------------|--------------------------|
D|-7--------------------------|-5-5-5-5-5-5-5-5-4--4--4--|
A|-5---5--5-5-5--5-5-5--5-5-5-|--------------------------|
       *  * * *  * * *  * * *   * * * * * * * * *  *  *

|--------------------------------------------------------------------------------------------------------|
|                                          VERSE (00:44-01:06)                                           |
|--------------------------------------------------------------------------------------------------------|

Guitars 1 and 2 (w/ dist)

   П V П  П  П V П  П V П             П V П  П   П V П  П  П V П  П V П                   П V П  П
D|-----------------------------|---------------|-----------------------------|---------------------|
A|-----------------------------|---------------|-----------------------------|---------------------|
F|-----------------------------|---------------|-----------------------------|---------------------|
C|-----------------------------|---------------|-----------------------------|---------------------|
G|-----------------------------|---------------|-----------------------------|---------------------|
D|-----------------------------|---------------|-----------------------------|---------------------|
A|-7-7-7--5--7-7-7--5-5-5------|------5-5-5--5-|-7-7-7--5--7-7-7--5-5-5------|------------5-5-5--5-|
   * * *  *  * * *  * * *             * * *  *   * * *  *  * * *  * * *                   * * *  *

   П V П  П  П V П  П V П             П V П  П   П V П  П  П V П  П V П  П   П V П  П  П V П  П  П V П
D|-----------------------------|---------------|---------------------------|----------------------------|
A|-----------------------------|---------------|---------------------------|----------------------------|
F|-----------------------------|---------------|---------------------------|----------------------------|
C|-----------------------------|---------------|---------------------------|----------------------------|
G|-----------------------------|---------------|---------------------------|----------------------------|
D|-----------------------------|---------------|---------------------------|----------------------------|
A|-3-3-3--3--3-3-3--3-3-3------|------3-3-3--3-|-2-2-2--2--2-2-2--2-2-2--2-|-5-5-5--5--5-5-5--5--5-5-5--|
   * * *  *  * * *  * * *             * * *  *   * * *  *  * * *  * * *  *   * * *  *  * * *  *  * * * 

   П V П  П  П V П  П V П             П V П  П   П V П  П  П V П  П V П                   П V П  П
D|-----------------------------|---------------|-----------------------------|---------------------|
A|-----------------------------|---------------|-----------------------------|---------------------|
F|-----------------------------|---------------|-----------------------------|---------------------|
C|-----------------------------|---------------|-----------------------------|---------------------|
G|-----------------------------|---------------|-----------------------------|---------------------|
D|-----------------------------|---------------|-----------------------------|---------------------|
A|-7-7-7--5--7-7-7--5-5-5------|------5-5-5--5-|-7-7-7--5--7-7-7--5-5-5------|------------5-5-5--5-|
   * * *  *  * * *  * * *             * * *  *   * * *  *  * * *  * * *                   * * *  *

   П V П  П  П V П  П V П             П V П  П   П V П  П  П V П  П V П  П   П V П  П  П V П  П V П  П
D|-----------------------------|---------------|---------------------------|----------------------------|
A|-----------------------------|---------------|---------------------------|----------------------------|
F|-----------------------------|---------------|---------------------------|----------------------------|
C|-----------------------------|---------------|---------------------------|----------------------------|
G|-----------------------------|---------------|---------------------------|----------------------------|
D|-----------------------------|---------------|---------------------------|----------------------------|
A|-3-3-3--3--3-3-3--3-3-3------|------3-3-3--3-|-2-2-2--2--2-2-2--2-2-2--2-|-5-5-5--5--5-5-5--5-5-5--5--|
   * * *  *  * * *  * * *             * * *  *   * * *  *  * * *  * * *  *   * * *  *  * * *  * * *  *

|--------------------------------------------------------------------------------------------------------|
|                                        PRE-CHORUS (01:06-01:17)                                        |
|--------------------------------------------------------------------------------------------------------|

Guitars 1 and 2 (w/ dist)

   П   П  П   П   П V   П   П  П   П  П V П V   П   V  П  V  П  V  П  V   П  V  П  V  П V П V П V
D|--------------------|-----------------------|-------------------------|-------------------------|
A|--------------------|-----------------------|-------------------------|-------------------------|
F|--------------------|-----------------------|-------------------------|-------------------------|
C|--------------------|-----------------------|-------------------------|-------------------------|
G|--------------------|-----------------------|-7---7--7--7--7--7--7--7-|-6--6--6--6--------------|
D|-9---7--9---7-------|-9---7--9---7----------|-5---5--5--5--5--5--5--5-|-4--4--4--4--4-4-4-4-4-4-|
A|-7---5--7---5---5-5-|-7---5--7---5--5-5-5-5-|-------------------------|-------------------------|
                  * *                 * * * *                                         * * * * * *

   П   П  П   П   П V   П   П  П   П  П V П V   П   V  П  V  П  V  П  V   П V П V П V П V П
D|--------------------|-----------------------|-------------------------|-------------------------|
A|--------------------|-----------------------|-------------------------|-------------------------|
F|--------------------|-----------------------|-------------------------|-------------------------|
C|--------------------|-----------------------|-------------------------|-------------------------|
G|--------------------|-----------------------|-------------------------|-------------------------|
D|-9---7--9---7-------|-9---7--9---7----------|-2---2--2--2--2--2--2--2-|-5-5-5-5-5-5-5-5-5-------|
A|-7---5--7---5---5-5-|-7---5--7---5--5-5-5-5-|-0---0--0--0--0--0--0--0-|-------------------------|
                  * *                 * * * *                             * * * * * * * * *

|--------------------------------------------------------------------------------------------------------|
|                                          CHORUS (01:17-01:39)                                          |
|--------------------------------------------------------------------------------------------------------|

Guitars 1 and 2 (w/ dist)

   П  П  П V П  П V П  П V П   П V П  П V П  П V П V П V ----|
D|---------------------------|---------------------------|   |
A|---------------------------|---------------------------|   |
F|---------------------------|---------------------------|   |
C|---------------------------|---------------------------|   |
G|---------------------------|---------------------------|   |
D|-5-------------------------|---------------------------|   |
A|-3--3--3-3-3--3-3-3--3-3-3-|-3-3-3--3-3-3--3-3-3-3-3-3-|   |
      *  * * *  * * *  * * *   * * *  * * *  * * * * * *     |
                                                             | x3
   П  П  П V П  П V П  П V П   П V П  П V П  П V П V П V     |
D|---------------------------|---------------------------|   |
A|---------------------------|---------------------------|   |
F|---------------------------|---------------------------|   |
C|---------------------------|---------------------------|   |
G|---------------------------|---------------------------|   |
D|-9-------------------------|-7-------------------------|   |
A|-7---7--7-7-7--7-7-7-7-7-7-|-5---5--5-5-5--5-5-5-5-5-5-|   |
       *  * * *  * * * * * *       *  * * *  * * * * * * ----|

   П  П  П V П  П V П  П V П   П V П  П V П  П V П V П V
D|---------------------------|---------------------------|
A|---------------------------|---------------------------|
F|---------------------------|---------------------------|
C|---------------------------|---------------------------|
G|---------------------------|---------------------------|
D|-5-------------------------|---------------------------|
A|-3--3--3-3-3--3-3-3--3-3-3-|-3-3-3--3-3-3--3-3-3-3-3-3-|
      *  * * *  * * *  * * *   * * *  * * *  * * * * * *

   П   П  П V П  П V П  П V П   П V П V П V П V П V П V П V
D|----------------------------|-----------------------------|
A|----------------------------|-----------------------------|
F|----------------------------|-----------------------------|
C|----------------------------|-----------------------------|
G|----------------------------|-----------------------------|
D|-7--------------------------|-5-5-5-5-5-5-5-5-4-4-4-4-4-4-|
A|-5---5--5-5-5--5-5-5--5-5-5-|-----------------------------|
       *  * * *  * * *  * * *   * * * * * * * * * * * * * * 

|--------------------------------------------------------------------------------------------------------|
|                                         VERSE 2 (01:39-02:06)                                          |
|--------------------------------------------------------------------------------------------------------|

Guitars 1 and 2 (w/ dist)

   П V П  П  П V П  П V П             П V П  П
D|-----------------------------|---------------|
A|-----------------------------|---------------|
F|-----------------------------|---------------| x2
C|-----------------------------|---------------| 
G|-----------------------------|---------------|
D|-----------------------------|---------------|
A|-7-7-7--5--7-7-7--5-5-5------|------5-5-5--5-|
   * * *  *  * * *  * * *             * * *  * 
   
   П V П  П  П V П  П V П             П V П  П   П V П  П  П V П  П V П                   П V П  П
D|-----------------------------|---------------|-----------------------------|---------------------|
A|-----------------------------|---------------|-----------------------------|---------------------|
F|-----------------------------|---------------|-----------------------------|---------------------|
C|-----------------------------|---------------|-----------------------------|---------------------|\
G|-----------------------------|---------------|-----------------------------|---------------------| \
D|-----------------------------|---------------|-----------------------------|---------------------|  \
A|-7-7-7--5--7-7-7--5-5-5------|------5-5-5--5-|-7-7-7--5--7-7-7--5-5-5------|------------5-5-5--5-|   \
   * * *  *  * * *  * * *             * * *  *   * * *  *  * * *  * * *                   * * *  *      \
                                                                                                         x2
   П V П  П  П V П  П V П             П V П  П   П V П  П  П V П  П V П  П   П V П  П  П V П  П V П  П   /
D|-----------------------------|---------------|---------------------------|----------------------------|
A|-----------------------------|---------------|---------------------------|----------------------------|
F|-----------------------------|---------------|---------------------------|----------------------------|
C|-----------------------------|---------------|---------------------------|----------------------------|
G|-----------------------------|---------------|---------------------------|----------------------------|
D|-----------------------------|---------------|---------------------------|----------------------------|
A|-3-3-3--3--3-3-3--3-3-3------|------3-3-3--3-|-2-2-2--2--2-2-2--2-2-2--2-|-5-5-5--5--5-5-5--5-5-5--5--|
   * * *  *  * * *  * * *             * * *  *   * * *  *  * * *  * * *  *   * * *  *  * * *  * * *  *

|--------------------------------------------------------------------------------------------------------|
|                                       PRE-CHORUS 2 (02:06-02:17)                                       |
|--------------------------------------------------------------------------------------------------------|
                                           same as PRE-CHORUS 
|--------------------------------------------------------------------------------------------------------|
|                                         CHORUS 2 (02:17-02:39)                                         |
|--------------------------------------------------------------------------------------------------------|

Guitars 1 and 2 (w/ dist)

   П  П  П V П  П V П  П V П   П V П  П V П  П V П V П V ----|
D|---------------------------|---------------------------|   |
A|---------------------------|---------------------------|   |
F|---------------------------|---------------------------|   |
C|---------------------------|---------------------------|   |
G|---------------------------|---------------------------|   |
D|-5-------------------------|---------------------------|   |
A|-3--3--3-3-3--3-3-3--3-3-3-|-3-3-3--3-3-3--3-3-3-3-3-3-|   |
      *  * * *  * * *  * * *   * * *  * * *  * * * * * *     |
                                                             | x3
   П  П  П V П  П V П  П V П   П V П  П V П  П V П V П V     |
D|---------------------------|---------------------------|   |
A|---------------------------|---------------------------|   |
F|---------------------------|---------------------------|   |
C|---------------------------|---------------------------|   |
G|---------------------------|---------------------------|   |
D|-9-------------------------|-7-------------------------|   |
A|-7---7--7-7-7--7-7-7-7-7-7-|-5---5--5-5-5--5-5-5-5-5-5-|   |
       *  * * *  * * * * * *       *  * * *  * * * * * * ----|

   П  П  П V П  П V П  П V П   П V П  П V П  П V П V П V 
D|---------------------------|---------------------------|
A|---------------------------|---------------------------|
F|---------------------------|---------------------------|
C|---------------------------|---------------------------|
G|---------------------------|---------------------------|
D|-5-------------------------|---------------------------|
A|-3--3--3-3-3--3-3-3--3-3-3-|-3-3-3--3-3-3--3-3-3-3-3-3-|
      *  * * *  * * *  * * *   * * *  * * *  * * * * * *
  
   П   П  П V П  П V П  П V П   П      П     П
D|----------------------------|------------------|
A|----------------------------|------------------|
F|----------------------------|------------------|
C|----------------------------|------------------|
G|----------------------------|-7------6-----4---|
D|-7--------------------------|-5------4-----2---|
A|-5---5--5-5-5--5-5-5--5-5-5-|------------------|
       *  * * *  * * *  * * *  

|--------------------------------------------------------------------------------------------------------|
|                                          BRIDGE (02:39-03:15)                                          |
|--------------------------------------------------------------------------------------------------------|

Guitars 1 and 2 (w/ dist)

   П   П  П  П
D|---------------|
A|---------------|
F|---------------|
C|---------------|
G|---------------|
D|-6~~~------5~~~|
A|-----5--5------|
       *  *
  
   П   П  П  П  П  П  П   П   П  П  П  П  П  П   П   П  П  П  П  П  П   П   П  П  П   П  П
D|----------------------|----------------------|----------------------|---------------------|
A|----------------------|----------------------|----------------------|---------------------|
F|----------------------|----------------------|----------------------|---------------------|
C|----------------------|----------------------|----------------------|---------------------| x4
G|----------------------|----------------------|----------------------|---------------------|
D|----------------------|----------------------|----------------------|-6~~~------5~~~------|
A|-7~~~5--7--5--8--7--5-|-7~~~5--7--5--8--7--5-|-7~~~5--7--5--8--7--5-|-----5--5------5--5--|
       *     *        *       *     *        *       *     *        *       *  *      *  *
   
   П   П  П  П   П  П    П   П  П  П   П V П V
D|---------------------|-----------------------|
A|---------------------|-----------------------|
F|---------------------|-----------------------|
C|---------------------|-----------------------|
G|---------------------|-----------------------|
D|-6~~~------5~~~------|-6~~~------5~~~--------|
A|-----5--5------5--5--|-----5--5------5-5-5-5-|
       *  *      *  *        *  *      * * * *

|--------------------------------------------------------------------------------------------------------|
|                                         CHORUS 3 (03:15-03:37)                                         |
|--------------------------------------------------------------------------------------------------------|

Guitars 1 and 2 (w/ dist)

   П  П  П V П  П V П  П V П   П V П  П V П  П V П V П V ----|
D|---------------------------|---------------------------|   |
A|---------------------------|---------------------------|   |
F|---------------------------|---------------------------|   |
C|---------------------------|---------------------------|   |
G|---------------------------|---------------------------|   |
D|-5-------------------------|---------------------------|   |
A|-3--3--3-3-3--3-3-3--3-3-3-|-3-3-3--3-3-3--3-3-3-3-3-3-|   |
      *  * * *  * * *  * * *   * * *  * * *  * * * * * *     |
                                                             | x3
   П  П  П V П  П V П  П V П   П V П  П V П  П V П V П V     |
D|---------------------------|---------------------------|   |
A|---------------------------|---------------------------|   |
F|---------------------------|---------------------------|   |
C|---------------------------|---------------------------|   |
G|---------------------------|---------------------------|   |
D|-9-------------------------|-7-------------------------|   |
A|-7---7--7-7-7--7-7-7-7-7-7-|-5---5--5-5-5--5-5-5-5-5-5-|   |
       *  * * *  * * * * * *       *  * * *  * * * * * * ----|

   П  П  П V П  П V П  П V П   П V П  П V П  П V П V П V
D|---------------------------|---------------------------|
A|---------------------------|---------------------------|
F|---------------------------|---------------------------|
C|---------------------------|---------------------------|
G|---------------------------|---------------------------|
D|-5-------------------------|---------------------------|
A|-3--3--3-3-3--3-3-3--3-3-3-|-3-3-3--3-3-3--3-3-3-3-3-3-|
      *  * * *  * * *  * * *   * * *  * * *  * * * * * *

    П  П  П V П  П V П  П V П   П  V  П  V  П  V  П
D|----------------------------|----------------------|
A|----------------------------|----------------------|
F|----------------------------|----------------------|
C|----------------------------|----------------------|
G|----------------------------|----------------------|
D|-7--------------------------|-5--4--------4--------|
A|-5---5--5-5-5--5-5-5--5-5-5-|-------7--5-----7--5--|
       *  * * *  * * *  * * *   *  *  *  *  *  *  *

|--------------------------------------------------------------------------------------------------------|
|                                          OUTRO (03:37-04:02)                                           |
|--------------------------------------------------------------------------------------------------------|

Guitars 1 and 2 (w/ dist)

   П   П  П   П   П     П   П   П   П     П   П  П   П   П     П   П  П   П V П V П V
D|--------------------|-----------------|--------------------|------------------------|
A|--------------------|-----------------|--------------------|------------------------|
F|--------------------|-----------------|--------------------|------------------------|
C|--------------------|-----------------|--------------------|------------------------|
G|--------------------|-----------------|--------------------|------------------------|
D|-5---5--5---5---5---|-5---5---5---5---|-9---9--9---9---9---|-7---7--7---------------|
A|-3---3--3---3---3---|-3---3---3---3---|-7---7--7---7---7---|-5---5--5---5-5-5-5-5-5-|
                                                                          * * * * * *

   П   П  П   П   П     П   П   П   П     П   П  П   П   П     П    П
D|--------------------|-----------------|--------------------|-----------|
A|--------------------|-----------------|--------------------|-----------|
F|--------------------|-----------------|--------------------|-----------|
C|--------------------|-----------------|--------------------|-----------|
G|--------------------|-----------------|--------------------|-7----6----|
D|-5---5--5---5---5---|-5---5---5---5---|-7---7--7---7---7---|-5----4----|
A|-3---3--3---3---3---|-3---3---3---3---|-5---5--5---5---5---|-----------|

   П V П  П  П V П  П V П
D|-----------------------------|
A|-----------------------------|
F|-----------------------------|
C|-----------------------------|
G|-----------------------------|
D|-----------------------------|
A|-7-7-7--5--7-7-7--5-5-5------|
   * * *  *  * * *  * * *


**********************************************************************************************************
*                                         9. BATTLE FOR UTOPIA                                           *
**********************************************************************************************************

|--------------------------------------------------------------------------------------------------------|
|                                          INTRO (00:00-00:57)                                           |
|--------------------------------------------------------------------------------------------------------|

Guitars 1 and 2 (w/ dist)

   П V П V     П V П V                 П V П V     П V П V             П V П    П V П 
D|--------------------------|--------|--------------------------|-----------------------|
A|--------------------------|--------|--------------------------|-----------------------|
F|--------------------------|--------|--------------------------|-----------------------|
C|--------------------------|--------|--------------------------|-----------------------|
G|--------------------------|--------|--------------------------|-----------------------|
D|-0-0-0-0-----0-0-0-0------|--------|-0-0-0-0-----0-0-0-0------|------0-0-0----2-2-2---|
A|--------------------------|--------|--------------------------|-----------------------|
   * * * *     * * * *                 * * * *     * * * *             * * *    * * * 

   П V П V     П V П V                 П V П V     П V П V             П V П    П V П
D|--------------------------|--------|--------------------------|-----------------------|
A|--------------------------|--------|--------------------------|-----------------------|
F|--------------------------|--------|--------------------------|-----------------------|
C|--------------------------|--------|--------------------------|-----------------------|
G|--------------------------|--------|--------------------------|-----------------------|
D|--------------------------|--------|--------------------------|-----------------------|
A|-3-3-3-3-----3-3-3-3------|--------|-2-2-2-2-----2-2-2-2------|------2-2-2----2-2-2---|
   * * * *     * * * *                 * * * *     * * * *             * * *    * * * 

   П V П V     П V П V     П V П V      П V П V     П V П    П V П
D|---------------------------------|---------------------------------|
A|---------------------------------|---------------------------------|
F|---------------------------------|---------------------------------|
C|---------------------------------|---------------------------------|
G|---------------------------------|---------------------------------|
D|-0-0-0-0-----0-0-0-0-----0-0-0-0-|----0-0-0-0-----0-0-0----0-0-0---|
A|---------------------------------|---------------------------------|
   * * * *     * * * *     * * * *      * * * *     * * *    * * * 

   П V П V     П V П V     П V П V      П V П V     П V П    П V П
D|---------------------------------|---------------------------------|
A|---------------------------------|---------------------------------|
F|---------------------------------|---------------------------------|
C|---------------------------------|---------------------------------|
G|---------------------------------|---------------------------------|
D|-0-0-0-0-----0-0-0-0-----0-0-0-0-|----0-0-0-0-----0-0-0----2-2-2---|
A|---------------------------------|---------------------------------|
   * * * *     * * * *     * * * *      * * * *     * * *    * * * 

   П V П V     П V П V     П V П V      П V П V     П V П    П V П
D|---------------------------------|---------------------------------|
A|---------------------------------|---------------------------------|
F|---------------------------------|---------------------------------|
C|---------------------------------|---------------------------------|
G|---------------------------------|---------------------------------|
D|---------------------------------|---------------------------------|
A|-3-3-3-3-----3-3-3-3-----3-3-3-3-|----3-3-3-3-----3-3-3----3-3-3---|
   * * * *     * * * *     * * * *      * * * *     * * *    * * *

   П V П V     П V П V     П V П V      П V П V     П V П    П V П
D|---------------------------------|---------------------------------|
A|---------------------------------|---------------------------------|
F|---------------------------------|---------------------------------|
C|---------------------------------|---------------------------------|
G|---------------------------------|---------------------------------|
D|---------------------------------|---------------------------------|
A|-2-2-2-2-----2-2-2-2-----2-2-2-2-|----2-2-2-2-----2-2-2----2-2-2---|
   * * * *     * * * *     * * * *      * * * *     * * *    * * *

   П V П V     П V П V     П V П V      П V П V     П V П    П V П  -------|
D|---------------------------------|---------------------------------|     |
A|---------------------------------|---------------------------------|     |
F|---------------------------------|---------------------------------|     |
C|---------------------------------|---------------------------------|     |
G|---------------------------------|---------------------------------|     |
D|-0-0-0-0-----0-0-0-0-----0-0-0-0-|----0-0-0-0-----0-0-0----0-0-0---|     |
A|---------------------------------|---------------------------------|     |
   * * * *     * * * *     * * * *      * * * *     * * *    * * *         |
                                                                           |
   П V П V     П V П V     П V П V      П V П V     П V П    П V П         |
D|---------------------------------|---------------------------------|     |
A|---------------------------------|---------------------------------|     |
F|---------------------------------|---------------------------------|     |
C|---------------------------------|---------------------------------|     |
G|---------------------------------|---------------------------------|     |
D|-0-0-0-0-----0-0-0-0-----0-0-0-0-|----0-0-0-0-----0-0-0----2-2-2---|     |
A|---------------------------------|---------------------------------|     |
   * * * *     * * * *     * * * *      * * * *     * * *    * * *         |
                                                                           | x2
   П V П V     П V П V     П V П V      П V П V     П V П    П V П         |
D|---------------------------------|---------------------------------|     |
A|---------------------------------|---------------------------------|     |
F|---------------------------------|---------------------------------|     |
C|---------------------------------|---------------------------------|     |
G|---------------------------------|---------------------------------|     |
D|---------------------------------|---------------------------------|     |
A|-3-3-3-3-----3-3-3-3-----3-3-3-3-|----3-3-3-3-----3-3-3----3-3-3---|     |
   * * * *     * * * *     * * * *      * * * *     * * *    * * *         |
                                                                           |
   П V П V     П V П V     П V П V      П V П V     П V П V П П V П        |
D|---------------------------------|---------------------------------|     |
A|---------------------------------|---------------------------------|     |
F|---------------------------------|---------------------------------|     |
C|---------------------------------|---------------------------------|     |
G|---------------------------------|---------------------------------|     |
D|---------------------------------|---------------------------------|     |
A|-2-2-2-2-----2-2-2-2-----2-2-2-2-|----2-2-2-2-----2-2-2-2-2-2-2-2--|     |
   * * * *     * * * *     * * * *      * * * *     * * * * * * * * -------|

   П V П  П V П  П V П  П V П   П V П  П V П  П  П V П  П
D|----------------------------|---------------------------|
A|----------------------------|---------------------------|
F|----------------------------|---------------------------|
C|----------------------------|---------------------------|
G|----------------------------|---------------------------|
D|-1-1-1--1-1-1--1-1-1--1-1-1-|-1-1-1--1-1-1--1--1-1-1--1-|
A|----------------------------|---------------------------|
   * * *  * * *  * * *  * * *   * * *  * * *  *  * * *  *

   П V П  П V П  П V П  П V П   П V П  П V П  П V П П V
D|----------------------------|----------------------------|
A|----------------------------|----------------------------|
F|----------------------------|----------------------------|
C|----------------------------|----------------------------|
G|----------------------------|----------------------------|
D|-1-1-1--1-1-1--1-1-1--1-1-1-|-1-1-1--1-1-1--1-1-1-1-1----|
A|----------------------------|----------------------------|
   * * *  * * *  * * *  * * *   * * *  * * *  * * * * *

|--------------------------------------------------------------------------------------------------------|
|                                          VERSE (00:57-01:17)                                           |
|--------------------------------------------------------------------------------------------------------|

Guitars 1 and 2 (w/ dist)

   П V П  П V П  П V П  П V П   П V П  П V П  П  П V П  П
D|-----------------------------|---------------------------|
A|-----------------------------|---------------------------|
F|-----------------------------|---------------------------|
C|-----------------------------|---------------------------| x8
G|-----------------------------|---------------------------|
D|-1-1-1--1-1-1--1-1-1--1-1-1--|-1-1-1--1-1-1--1--1-1-1--1-|
A|-----------------------------|---------------------------|
   * * *  * * *  * * *  * * *    * * *  * * *  *  * * *  *
                                     
|--------------------------------------------------------------------------------------------------------|
|                                        PRE-CHORUS (01:17-01:27)                                        |
|--------------------------------------------------------------------------------------------------------|

Guitars 1 and 2 (w/ dist)

   П V П V П V П V П V П V П       П V П V П     П V П V П
D|-------------------------------|-----------------------------|
A|-------------------------------|-----------------------------|
F|-------------------------------|-----------------------------|
C|-------------------------------|-----------------------------| x3
G|-------------------------------|-----------------------------|
D|-2-2-2-2-2-2-2-2-2-2-2-2-2-----|-2-2-2-2-2-----2-2-2-2-2-----|
A|-------------------------------|-----------------------------|
   * * * * * * * * * * * * *       * * * * *     * * * * * 

   П V П V П V П V П V П V П       П V П V П   П V П V П
D|-------------------------------|-------------------------|
A|-------------------------------|-------------------------|
F|-------------------------------|-------------------------|
C|-------------------------------|-------------------------|
G|-------------------------------|---------5-----------7---|
D|-2-2-2-2-2-2-2-2-2-2-2-2-2-----|-2-2-2-2-3---2-2-2-2-5---|
A|-------------------------------|-------------------------|
   * * * * * * * * * * * * *       * * * *     * * * *

|--------------------------------------------------------------------------------------------------------|
|                                         VERSE 2 (01:27-01:37)                                          |
|--------------------------------------------------------------------------------------------------------|

Guitars 1 and 2 (w/ dist)

   П V П  П V П  П V П  П V П   П V П  П V П  П  П V П  П
D|-----------------------------|---------------------------|
A|-----------------------------|---------------------------|
F|-----------------------------|---------------------------|
C|-----------------------------|---------------------------| x4
G|-----------------------------|---------------------------|
D|-1-1-1--1-1-1--1-1-1--1-1-1--|-1-1-1--1-1-1--1--1-1-1--1-|
A|-----------------------------|---------------------------|
   * * *  * * *  * * *  * * *    * * *  * * *  *  * * *  *

|--------------------------------------------------------------------------------------------------------|
|                                          CHORUS (01:37-02:07)                                          |
|--------------------------------------------------------------------------------------------------------|

Guitars 1 and 2 (w/ dist)

   П V П V     П V П V     П V П V      П V П V     П V П    П V П  -------|
D|---------------------------------|---------------------------------|     |
A|---------------------------------|---------------------------------|     |
F|---------------------------------|---------------------------------|     |
C|---------------------------------|---------------------------------|     |
G|---------------------------------|---------------------------------|     |
D|-0-0-0-0-----0-0-0-0-----0-0-0-0-|----0-0-0-0-----0-0-0----0-0-0---|     |
A|---------------------------------|---------------------------------|     |
   * * * *     * * * *     * * * *      * * * *     * * *    * * *         |
                                                                           |
   П V П V     П V П V     П V П V      П V П V     П V П    П V П         |
D|---------------------------------|---------------------------------|     |
A|---------------------------------|---------------------------------|     |
F|---------------------------------|---------------------------------|     |
C|---------------------------------|---------------------------------|     |
G|---------------------------------|---------------------------------|     |
D|-0-0-0-0-----0-0-0-0-----0-0-0-0-|----0-0-0-0-----0-0-0----2-2-2---|     |
A|---------------------------------|---------------------------------|     |
   * * * *     * * * *     * * * *      * * * *     * * *    * * *         |
                                                                           | x2
   П V П V     П V П V     П V П V      П V П V     П V П    П V П         |
D|---------------------------------|---------------------------------|     |
A|---------------------------------|---------------------------------|     |
F|---------------------------------|---------------------------------|     |
C|---------------------------------|---------------------------------|     |
G|---------------------------------|---------------------------------|     |
D|---------------------------------|---------------------------------|     |
A|-3-3-3-3-----3-3-3-3-----3-3-3-3-|----3-3-3-3-----3-3-3----3-3-3---|     |
   * * * *     * * * *     * * * *      * * * *     * * *    * * *         |
                                                                           |
   П V П V     П V П V     П V П V      П V П V     П V П V П П V П        |
D|---------------------------------|---------------------------------|     |
A|---------------------------------|---------------------------------|     |
F|---------------------------------|---------------------------------|     |
C|---------------------------------|---------------------------------|     |
G|---------------------------------|---------------------------------|     |
D|---------------------------------|---------------------------------|     |
A|-2-2-2-2-----2-2-2-2-----2-2-2-2-|----2-2-2-2-----2-2-2-2-2-2-2-2--|     |
   * * * *     * * * *     * * * *      * * * *     * * * * * * * * -------|

   П V П V     П V П V     П V П V      П V П V     П V П    П V П
D|---------------------------------|---------------------------------|
A|---------------------------------|---------------------------------|
F|---------------------------------|---------------------------------|
C|---------------------------------|---------------------------------|
G|---------------------------------|---------------------------------|
D|---------------------------------|---------------------------------|
A|-3-3-3-3-----3-3-3-3-----3-3-3-3-|----3-3-3-3-----3-3-3----3-3-3---|\
   * * * *     * * * *     * * * *      * * * *     * * *    * * *     \
                                                                        x2
   П V П V     П V П V     П V П V      П V П V     П V П V П П V П    /
D|---------------------------------|---------------------------------|/
A|---------------------------------|---------------------------------|
F|---------------------------------|---------------------------------|
C|---------------------------------|---------------------------------|
G|---------------------------------|---------------------------------|
D|---------------------------------|---------------------------------|
A|-2-2-2-2-----2-2-2-2-----2-2-2-2-|----2-2-2-2-----2-2-2-2-2-2-2-2--|
   * * * *     * * * *     * * * *      * * * *     * * * * * * * *

|--------------------------------------------------------------------------------------------------------|
|                                          BRIDGE (02:07-03:11)                                          |
|--------------------------------------------------------------------------------------------------------|

Guitars 1 and 2 (w/ dist)

   П V П V П  П V П V П  П V П V   П  П V П V П  П V П  П V П
D|-------------------------------|----------------------------|
A|-------------------------------|----------------------------|
F|-------------------------------|----------------------------| x3
C|-------------------------------|----------------------------|
G|-------------------------------|----------------------------|
D|-5-5-4-4-0--6-6-5-5-0--5-5-4-4-|-0--6-6-5-5-0--5-5-5--0-0-0-|
A|-------------------------------|----------------------------|
   * * * * *  * * * * *  * * * *   *  * * * * *  * * *  * * *

   П V П V П  П V П V П  П V П V   П  П V П V П  П V П  П V П
D|-------------------------------|----------------------------|
A|-------------------------------|----------------------------|
F|-------------------------------|----------------------------|
C|-------------------------------|----------------------------|
G|-------------------------------|----------------------------|
D|-5-5-4-4-0--6-6-5-5-0--5-5-4-4-|-0--6-6-5-5-0--0-0-0--0-0-0-|
A|-------------------------------|----------------------------|
   * * * * *  * * * * *  * * * *   *  * * * * *  * * *  * * *

   П     П  П     П  П      П  П     П  П     П V П V
D|------------------------|---------------------------|
A|------------------------|---------------------------|
F|------------------------|---------------------------| x3
C|------------------------|---------------------------|
G|-7-s6-----8-s7-----7-s6-|----8-s7-----7-s6----------|
D|-5-s4--0--6-s5--0--5-s4-|-0--6-s5--0--5-s4--0-0-0-0-|
A|------------------------|---------------------------|
         *        *         *        *        * * * * 

   П     П  П     П  П      П  П     П  П
D|------------------------|---------------------|
A|------------------------|---------------------|
F|------------------------|---------------------|
C|------------------------|---------------------|
G|-7-s6-----8-s7-----7-s6-|----8-s7-----7-s6----|
D|-5-s4--0--6-s5--0--5-s4-|-0--6-s5--0--5-s4----|
A|------------------------|---------------------|
         *        *         *        *

   П     П  П     П  П      П  П     П  П     П V П V
D|------------------------|---------------------------|
A|------------------------|---------------------------|
F|------------------------|---------------------------| x3
C|------------------------|---------------------------|
G|-7-s6-----8-s7-----7-s6-|----8-s7-----7-s6----------|
D|-5-s4--0--6-s5--0--5-s4-|-0--6-s5--0--5-s4--0-0-0-0-|
A|------------------------|---------------------------|
         *        *         *        *        * * * * 

   П V П V П  П V П V П  П V П V   П  П V П V П  П V П V П V П V
D|-------------------------------|-------------------------------|
A|-------------------------------|-------------------------------|
F|-------------------------------|-------------------------------|
C|-------------------------------|-------------------------------|
G|-------------------------------|-------------------------------|
D|-5-5-4-4-0--6-6-5-5-0--5-5-4-4-|-0--6-6-5-5-0--5-4-0-0-6-5-0-0-|
A|-------------------------------|-------------------------------|
   * * * * *  * * * * *  * * * *   *  * * * * *  * * * * * * * *

   П     П  П   П     П  П   П     П  П   П    П     П     П  П   П     П  П   П     П  П   П    П
D|------------|------------|------------|----------|------------|------------|------------|----------|
A|------------|------------|------------|----------|------------|------------|------------|----------|
F|------------|------------|------------|----------|------------|------------|------------|----------|
C|------------|------------|------------|----------|------------|------------|------------|----------|
G|-2-----2--2-|-6-----6--6-|------------|-4----7---|-2-----2--2-|-6-----6--6-|------------|----------|
D|-0-----0--0-|-4-----4--4-|-5-----5--5-|-2----5---|-0-----0--0-|-4-----4--4-|-5-----5--5-|-4----5---|
A|------------|------------|-3-----3--3-|----------|------------|------------|-3-----3--3-|-2----3---|
         *  *         *  *         *  *                    *  *         *  *         *  *

   П     П  П   П     П  П   П     П  П   П    П     П     П  П   П     П  П   П     П  П   П    П
D|------------|------------|------------|----------|------------|------------|------------|----------|
A|------------|------------|------------|----------|------------|------------|------------|----------|
F|------------|------------|------------|----------|------------|------------|------------|----------|
C|------------|------------|------------|----------|------------|------------|------------|----------|
G|-2-----2--2-|-6-----6--6-|------------|-4----7---|-2-----2--2-|-6-----6--6-|-7-----7--7-|----------|
D|-0-----0--0-|-4-----4--4-|-5-----5--5-|-2----5---|-0-----0--0-|-4-----4--4-|-5-----5--5-|-5----4---|
A|------------|------------|-3-----3--3-|----------|------------|------------|------------|-3----2---|
         *  *         *  *         *  *                    *  *         *  *         *  *

|--------------------------------------------------------------------------------------------------------|
|                                         CHORUS 2 (03:11-03:31)                                         |
|--------------------------------------------------------------------------------------------------------|

Guitars 1 and 2 (w/ dist)

   П V П V     П V П V     П V П V      П V П V     П V П    П V П  -------|
D|---------------------------------|---------------------------------|     |
A|---------------------------------|---------------------------------|     |
F|---------------------------------|---------------------------------|     |
C|---------------------------------|---------------------------------|     |
G|---------------------------------|---------------------------------|     |
D|-0-0-0-0-----0-0-0-0-----0-0-0-0-|----0-0-0-0-----0-0-0----0-0-0---|     |
A|---------------------------------|---------------------------------|     |
   * * * *     * * * *     * * * *      * * * *     * * *    * * *         |
                                                                           |
   П V П V     П V П V     П V П V      П V П V     П V П    П V П         |
D|---------------------------------|---------------------------------|     |
A|---------------------------------|---------------------------------|     |
F|---------------------------------|---------------------------------|     |
C|---------------------------------|---------------------------------|     |
G|---------------------------------|---------------------------------|     |
D|-0-0-0-0-----0-0-0-0-----0-0-0-0-|----0-0-0-0-----0-0-0----2-2-2---|     |
A|---------------------------------|---------------------------------|     |
   * * * *     * * * *     * * * *      * * * *     * * *    * * *         |
                                                                           | x2
   П V П V     П V П V     П V П V      П V П V     П V П    П V П         |
D|---------------------------------|---------------------------------|     |
A|---------------------------------|---------------------------------|     |
F|---------------------------------|---------------------------------|     |
C|---------------------------------|---------------------------------|     |
G|---------------------------------|---------------------------------|     |
D|---------------------------------|---------------------------------|     |
A|-3-3-3-3-----3-3-3-3-----3-3-3-3-|----3-3-3-3-----3-3-3----3-3-3---|     |
   * * * *     * * * *     * * * *      * * * *     * * *    * * *         |
                                                                           |
   П V П V     П V П V     П V П V      П V П V     П V П V П П V П        |
D|---------------------------------|---------------------------------|     |
A|---------------------------------|---------------------------------|     |
F|---------------------------------|---------------------------------|     |
C|---------------------------------|---------------------------------|     |
G|---------------------------------|---------------------------------|     |
D|---------------------------------|---------------------------------|     |
A|-2-2-2-2-----2-2-2-2-----2-2-2-2-|----2-2-2-2-----2-2-2-2-2-2-2-2--|     |
   * * * *     * * * *     * * * *      * * * *     * * * * * * * * -------|

|--------------------------------------------------------------------------------------------------------|
|                                          OUTRO (03:31-04:14)                                           |
|--------------------------------------------------------------------------------------------------------|

Guitars 1 and 2 (w/ dist)

   П V П V     П V П V     П V П V      П V П V     П V П V П П V П  ------|
D|---------------------------------|---------------------------------|     |
A|---------------------------------|---------------------------------|     |
F|---------------------------------|---------------------------------|     |
C|---------------------------------|---------------------------------|     |
G|---------------------------------|---------------------------------|     |
D|-0-0-0-0-----0-0-0-0-----0-0-0-0-|----0-0-0-0-----0-0-0-0-0-0-0-0--|     |
A|---------------------------------|---------------------------------|     |
   * * * *     * * * *     * * * *      * * * *     * * * * * * * *        |
                                                                           |
   П V П V     П V П V     П V П V      П V П V     П V П    П V П         |
D|---------------------------------|---------------------------------|     |
A|---------------------------------|---------------------------------|     |
F|---------------------------------|---------------------------------|     |
C|---------------------------------|---------------------------------|     |
G|---------------------------------|---------------------------------|     |
D|-0-0-0-0-----0-0-0-0-----0-0-0-0-|----0-0-0-0-----0-0-0----2-2-2---|     |
A|---------------------------------|---------------------------------|     |
   * * * *     * * * *     * * * *      * * * *     * * *    * * *         |
                                                                           |
   П V П V     П V П V     П V П V      П V П V     П V П V П П V П        | x2
D|---------------------------------|---------------------------------|     |
A|---------------------------------|---------------------------------|     |
F|---------------------------------|---------------------------------|     |
C|---------------------------------|---------------------------------|     |
G|---------------------------------|---------------------------------|     |
D|---------------------------------|---------------------------------|     |
A|-3-3-3-3-----3-3-3-3-----3-3-3-3-|----3-3-3-3-----3-3-3-3-3-3-3-3--|     |
   * * * *     * * * *     * * * *      * * * *     * * * * * * * *        |
                                                                           |
   П V П V     П V П V     П V П V      П V П V     П V П V П П V П        |
D|---------------------------------|---------------------------------|     |
A|---------------------------------|---------------------------------|     |
F|---------------------------------|---------------------------------|     |
C|---------------------------------|---------------------------------|     |
G|---------------------------------|---------------------------------|     |
D|---------------------------------|---------------------------------|     |
A|-2-2-2-2-----2-2-2-2-----2-2-2-2-|----2-2-2-2-----2-2-2-2-2-2-2-2--|     |
   * * * *     * * * *     * * * *      * * * *     * * * * * * * * -------|

   П V П V     П V П V     П V П V      П V П V     П V П V П П V П
D|---------------------------------|---------------------------------|
A|---------------------------------|---------------------------------|
F|---------------------------------|---------------------------------|
C|---------------------------------|---------------------------------|
G|---------------------------------|---------------------------------|
D|---------------------------------|---------------------------------|
A|-3-3-3-3-----3-3-3-3-----3-3-3-3-|----3-3-3-3-----3-3-3-3-3-3-3-3--|
   * * * *     * * * *     * * * *      * * * *     * * * * * * * *

   П V П V     П V П V     П V П V      П V П V     П V П V П П V П
D|---------------------------------|---------------------------------|
A|---------------------------------|---------------------------------|
F|---------------------------------|---------------------------------|
C|---------------------------------|---------------------------------|
G|---------------------------------|---------------------------------|
D|---------------------------------|---------------------------------|
A|-2-2-2-2-----2-2-2-2-----2-2-2-2-|----2-2-2-2-----2-2-2-2-2-2-2-2--|
   * * * *     * * * *     * * * *      * * * *     * * * * * * * * 

   П V П  П  П  П  П  П V П V   П  П  П  П  П V П V П V П V 
D|----------------------------|-----------------------------|
A|----------------------------|-----------------------------|
F|----------------------------|-----------------------------|
C|----------------------------|-----------------------------|
G|----------------------------|-----------------------------|
D|----------------------------|-----------------------------|
A|-3-3-3--3--3--3--3--3-3-3-3-|-3--3--3--3--3-3-3-3-3-3-3-3-|
   * * *  *  *  *  *  * * * *   *  *  *  *  * * * * * * * *

   П V П  П  П  П  П  П V П V   П  П  П  П  П V П V П V П V   П
D|----------------------------|-----------------------------|--------|
A|----------------------------|-----------------------------|--------|
F|----------------------------|-----------------------------|--------|
C|----------------------------|-----------------------------|--------|
G|----------------------------|-----------------------------|--------|
D|----------------------------|-----------------------------|--------|
A|-2-2-2--2--2--2--2--2-2-2-2-|-2--2--2--2--2-2-2-2-2-2-2-2-|-2------|
   * * *  *  *  *  *  * * * *   *  *  *  *  * * * * * * * *   *


**********************************************************************************************************
*                                         10. EXPIRATION DATE                                            *
**********************************************************************************************************

                     ************Play all riffs with down picking only************

|--------------------------------------------------------------------------------------------------------|
|                                          INTRO (00:00-00:53)                                           |
|--------------------------------------------------------------------------------------------------------|

Guitar 1 (w/ dist and delay) - fade in

D|--------------------------|
A|--------------------------|
F|-------------'5'----------| x16
C|----'5''4''5'---'4''5''4'-|
G|-'5'----------------------|
D|--------------------------|
A|--------------------------|

Guitars 2 and 3 (w/ dist)

8 bars empty, then:

D|--------|--------|-------|--------|-------|--------|--------|-------------|
A|--------|--------|-------|--------|-------|--------|--------|-------------|
F|--------|--------|-------|--------|-------|--------|--------|-------------|
C|--------|--------|-------|----7---|-5-----|----7---|-12-----|-11---9---7--|
G|-5------|--/s9---|-2-----|----7---|-5-----|----7---|-12-----|-11---9---7--|
D|-5------|--/s9---|-2-----|----5---|-3-----|----5---|-10-----|-9----7---5--|
A|-3------|--/s7---|-0-----|--------|----------------|--------|-------------|

|--------------------------------------------------------------------------------------------------------|
|                                          VERSE (00:53-01:44)                                           |
|--------------------------------------------------------------------------------------------------------|

I. Guitars 1 and 2 (w/ dist) - fade out

   ........................
D|--------|--------|-------|
A|--------|--------|-------|
F|--------|--------|-------|
C|--------|--------|-------|
G|-5------|--------|-------|
D|-5------|--------|-------|
A|-3------|--------|-------|

after that, 5 bars w/out guitars

II. Guitars 1 and 2 (w/ dist)

D|-----------------------|-----------------------|-----------------------|-----------------------|
A|-----------------------|-----------------------|-----------------------|-----------------------|
F|-----------------------|-----------------------|-----------------------|-----------------------|
C|-----------------------|-----------------------|-----------------------|-----------------7-----|
G|-5--5-------5----5-----|-5--5-------5--/s9-----|-2--2-------2----2-----|-2--2-------2----7-----|
D|-5--5-------5----5-----|-5--5-------5--/s9-----|-2--2-------2----2-----|-2--2-------2----5-----|
A|-3--3-------3----3-----|-3--3-------3--/s7-----|-0--0-------0----0-----|-0--0-------0----------|

D|-----------------------|-----------------------|-----------------------|-----------------------|
A|-----------------------|-----------------------|-----------------------|-----------------------|
F|-----------------------|-----------------------|-----------------------|-----------------------|
C|-5--5-------5----5-----|-5--5-------5----9-----|-12-12------12---12----|-11-11------11---12----|
G|-5--5-------5----5-----|-5--5-------5----9-----|-12-12------12---12----|-11-11------11---12----|
D|-3--3-------3----3-----|-3--3-------3----7-----|-10-10------10---10----|-9--9-------9----10----|
A|-----------------------|-----------------------|-----------------------|-----------------------|

   Guitar 3 (w/ dist and delay) - fade in

6 bars empty, then:

D|--------------------------|
A|--------------------------|
F|-------------'5'----------| x2
C|----'5''4''5'---'4''5''4'-|
G|-'5'----------------------|
D|--------------------------|
A|--------------------------|

|--------------------------------------------------------------------------------------------------------|
|                                          CHORUS (01:44-02:34)                                          |
|--------------------------------------------------------------------------------------------------------|

Guitar 1 (w/ dist and delay)

D|--------------------------|
A|--------------------------|
F|-------------'5'----------| x16
C|----'5''4''5'---'4''5''4'-|
G|-'5'----------------------|
D|--------------------------|
A|--------------------------|

Guitars 2 and 3 (w/ dist)

D|--------|--------|-------|--------|-------|--------|--------|-------------|
A|--------|--------|-------|--------|-------|--------|--------|-------------|
F|--------|--------|-------|--------|-------|--------|--------|-------------| x2
C|--------|--------|-------|----7---|-5-----|----7---|-12-----|-11---9---7--|
G|-5------|--/s9---|-2-----|----7---|-5-----|----7---|-12-----|-11---9---7--|
D|-5------|--/s9---|-2-----|----5---|-3-----|----5---|-10-----|-9----7---5--|
A|-3------|--/s7---|-0-----|--------|----------------|--------|-------------|

|--------------------------------------------------------------------------------------------------------|
|                                         VERSE 2 (02:34-03:25)                                          |
|--------------------------------------------------------------------------------------------------------|

8 bars empty, then:

Guitars 1 and 2 (w/ dist)

D|-----------------------|-----------------------|-----------------------|-----------------------|
A|-----------------------|-----------------------|-----------------------|-----------------------|
F|-----------------------|-----------------------|-----------------------|-----------------------|
C|-----------------------|-----------------------|-----------------------|-----------------7-----|
G|-5--5-------5----5-----|-5--5-------5--/s9-----|-2--2-------2----2-----|-2--2-------2----7-----|
D|-5--5-------5----5-----|-5--5-------5--/s9-----|-2--2-------2----2-----|-2--2-------2----5-----|
A|-3--3-------3----3-----|-3--3-------3--/s7-----|-0--0-------0----0-----|-0--0-------0----------|

D|-----------------------|-----------------------|-----------------------|-----------------------|
A|-----------------------|-----------------------|-----------------------|-----------------------|
F|-----------------------|-----------------------|-----------------------|-----------------------|
C|-5--5-------5----5-----|-5--5-------5----9-----|-12-12------12---12----|-11-11------11---12----|
G|-5--5-------5----5-----|-5--5-------5----9-----|-12-12------12---12----|-11-11------11---12----|
D|-3--3-------3----3-----|-3--3-------3----7-----|-10-10------10---10----|-9--9-------9----10----|
A|-----------------------|-----------------------|-----------------------|-----------------------|

|--------------------------------------------------------------------------------------------------------|
|                                         CHORUS 2 (03:25-04:44)                                         |
|--------------------------------------------------------------------------------------------------------|

1 bar empty, then:

Guitar 1 (w/ dist and delay)

D|--------------------------|
A|--------------------------|
F|-------------'5'----------| x24
C|----'5''4''5'---'4''5''4'-|
G|-'5'----------------------|
D|--------------------------|
A|--------------------------|

Guitars 2 and 3 (w/ dist)

D|--------|--------|-------|--------|-------|--------|--------|-------------|
A|--------|--------|-------|--------|-------|--------|--------|-------------|
F|--------|--------|-------|--------|-------|--------|--------|-------------| x3
C|--------|--------|-------|----7---|-5-----|----7---|-12-----|-11---9---7--|
G|-5------|--/s9---|-2-----|----7---|-5-----|----7---|-12-----|-11---9---7--|
D|-5------|--/s9---|-2-----|----5---|-3-----|----5---|-10-----|-9----7---5--|
A|-3------|--/s7---|-0-----|--------|----------------|--------|-------------|

|--------------------------------------------------------------------------------------------------------|
|                                          OUTRO (04:44-08:48)                                           |
|--------------------------------------------------------------------------------------------------------|

Guitar 1 (w/ dist)

D|--------------------------|
A|--------------------------|
F|-------------'5'----------| x4
C|----'5''4''5'---'4''5''4'-|
G|-'5'----------------------|
D|--------------------------|
A|--------------------------|



Добавлено: 16.02.2016
Другие материалы по этой песне:

Страница создана 16.02.2016
http://primanota.ru/fear-factory/genexus-album-chords.htm
Привет, Гость.
Предлагаем пройти революционный курс по гитаре.
Подарок от PrimaNota.Ru, забирай!