PrimaNota.ru - самый крупный в мире бесплатный архив песенных текстов, аккордов, табулатур и нот


Fear Factory - Dielectric - таба, видео

Регистрация Запомнить меня
Войти через:  Facebook Google Twitter Vk Yandex Mail.ru

Fear Factory - Dielectric - таба, видео

Печатать
Просмотров: 103
Авторы: Burton C. Bell, Dino Cazares

|--------------------------------------------------------------------------------------------------------|
|                                         FEAR FACTORY - DIELECTRIC                                      |
|                                           Album: Genexus (2015)                                        |
|--------------------------------------------------------------------------------------------------------|

                   If you have questions or corrections feel free to send me a message:
                                http://profile.ultimate-guitar.com/godspeedy/
                                    https://www.facebook.com/Godspeedy14
                     
                 Also check out my Youtube channel: http://www.youtube.com/user/Godspeedy14

                        *************************************************************
                        * NOTE: If you need a playthrough, check out my cover here: *
                        *       https://www.youtube.com/watch?v=oNz-HE9w2y0         *
                        *************************************************************

                                        Tuning: 7 strings ADGCFAD 
                                                    
*********************************************GUITAR NOTATIONS*********************************************
*                                                                                                        *
*                                      | *   palm mute           |                                       *
*                                      | s   slide               |                                       *
*                                      | h   hammer-on           |                                       *
*                                      | p   pull-off            |                                       *
*                                      | ..  let ring            |                                       *
*                                                                                                        *
**********************************************************************************************************

|--------------------------------------------------------------------------------------------------------|
|                                          INTRO (00:00-00:41)                                           |
|--------------------------------------------------------------------------------------------------------|

Guitars 1 and 2 (w/ dist)

D|------------------------|------------------------|------------------------|-------------------------|
A|------------------------|------------------------|------------------------|-------------------------|
F|------------------------|------------------------|------------------------|-------------------------| x3
C|------------------------|------------------------|------------------------|-------------------------|
G|------------------------|------------------------|------------------------|-------------------------|
D|------------------------|------------------------|------------------------|-------------------------|
A|-3--2--1--2-----1--3--2-|-1--2-----1--1-----2--1-|-3--2--1--2-----1--3--2-|-1--2-----1--1-1-1--1--1-|
                  *                  *                              *                  *  * * *  *  *

D|------------------------|------------------------|------------------------|------------------------|
A|------------------------|------------------------|------------------------|------------------------|
F|------------------------|------------------------|------------------------|------------------------|
C|------------------------|------------------------|------------------------|------------------------|
G|------------------------|------------------------|------------------------|------------------------|
D|------------------------|------------------------|------------------------|------------------------|
A|-3--2--1--2-----1--3--2-|-1--2-----1--1-----2--1-|-3--2--1--2-----1--3--2-|-1--2-----1--1-----1--1-|
                  *                  *                              *                  *        *  *

|--------------------------------------------------------------------------------------------------------|
|                                          VERSE (00:41-01:01)                                           |
|--------------------------------------------------------------------------------------------------------|

Guitars 1 and 2 (w/ dist)

D|------------------------|------------------------|------------------------|-------------------------|
A|------------------------|------------------------|------------------------|-------------------------|
F|------------------------|------------------------|------------------------|-------------------------| x2
C|------------------------|------------------------|------------------------|-------------------------|
G|------------------------|-------------------3----|------------------------|-------------------------|
D|------------------------|------------------------|------------------------|-------------------------|
A|-3--2--1--2-----1--3--2-|-1--2-----1--1--------1-|-3--2--1--2-----1--3--2-|-1--2-----1--1-1-1--1--1-|
                  *                  *                              *                  *  * * *  *  *
D|------------------------|------------------------|
A|------------------------|------------------------|
F|------------------------|------------------------| x4
C|------------------------|------------------------|
G|------------------------|------------------------|
D|------------------------|------------------------|
A|-3--2--1--2--1--1--3--2-|-1--2--1--1--1-h2--2-h3-|
               *  *               *  *

|--------------------------------------------------------------------------------------------------------|
|                                        PRE-CHORUS (01:01-01:11)                                        |
|--------------------------------------------------------------------------------------------------------|

Guitars 1 and 2 (w/ dist)

D|------------------------|------------------------|
A|------------------------|------------------------|
F|------------------------|------------------------|
C|------------------------|------------------------|
G|------------------------|------------------------|
D|------------------------|-5----------------------|
A|-4--3-3-3--4---3--3-3-3-|----3-3-3--4---3--3-3-3-|
      * * *      *  * * *      * * *      *  * * *
D|------------------------|-------------------------|
A|------------------------|-------------------------|
F|------------------------|-------------------------|
C|------------------------|-------------------------|
G|------------------------|----------------------7--|
D|------------------------|----------------------5--|
A|-6--3-3-3--4---3--3-3-3-|-3-3-3--6-6-6--3-3-3-----|
      * * *      *  * * *   * * *  * * *  * * *

|--------------------------------------------------------------------------------------------------------|
|                                         VERSE 2 (01:11-01:31)                                          |
|--------------------------------------------------------------------------------------------------------|

Guitars 1 and 2 (w/ dist)

D|------------------------|------------------------|------------------------|-------------------------|
A|------------------------|------------------------|------------------------|-------------------------|
F|------------------------|------------------------|------------------------|-------------------------| x2
C|------------------------|------------------------|------------------------|-------------------------|
G|------------------------|-------------------3----|------------------------|-------------------------|
D|------------------------|------------------------|------------------------|-------------------------|
A|-3--2--1--2-----1--3--2-|-1--2-----1--1--------1-|-3--2--1--2-----1--3--2-|-1--2-----1--1-1-1--1--1-|
                  *                  *                              *                  *  * * *  *  *
D|------------------------|------------------------|     |------------------------|---------------------|
A|------------------------|------------------------|     |------------------------|---------------------|
F|------------------------|------------------------| x3  |------------------------|---------------------|
C|------------------------|------------------------|     |------------------------|---------------------|
G|------------------------|------------------------|     |------------------------|---------------------|
D|------------------------|------------------------|     |------------------------|---------------------|
A|-3--2--1--2--1--1--3--2-|-1--2--1--1--1-h2--2-h3-|     |-3--2--1--2-----1--3--2-|-1--2-----1--1-------|
               *  *               *  *                                    *                  *

|--------------------------------------------------------------------------------------------------------|
|                                          CHORUS (01:31-02:11)                                          |
|--------------------------------------------------------------------------------------------------------|

Guitars 1 and 2 (w/ dist)

       ..............      ..............      ..............  
D|-------------------|-------------------|-------------------|------------------------|
A|---------0---------|---------0---------|---------0---------|------------------------|
F|-----0--------0----|-----0--------0----|-----0--------0----|------------------------|
C|-------------------|-------------------|-------------------|------------------------|
G|-3-----------------|-7-----------------|-5-----------------|-5--------5--------7----|
D|-1-----------------|-5-----------------|-3-----------------|-3----3---3----3---5----|
A|-------------------|-------------------|-------------------|------------------------|
                                                                    *        *
       ..............      ..............      ..............  
D|-------------------|-------------------|-------------------|------------------------|
A|---------0---------|---------0---------|---------0---------|------------------------|
F|-----0--------0----|-----0--------0----|-----0--------0----|------------------------|
C|-------------------|-------------------|-------------------|------------------------|
G|-3-----------------|-7-----------------|-5-----------------|-5--------5--------2----|
D|-1-----------------|-5-----------------|-3-----------------|-3----3---3----3---0----|
A|-------------------|-------------------|-------------------|------------------------|
                                                                    *        *
       ..............      ..............      ..............  
D|-------------------|-------------------|-------------------|------------------------|
A|---------0---------|---------0---------|---------0---------|------------------------|
F|-----0--------0----|-----0--------0----|-----0--------0----|------------------------|
C|-------------------|-------------------|-------------------|------------------------|
G|-3-----------------|-7-----------------|-5-----------------|-5--------5--------7----|
D|-1-----------------|-5-----------------|-3-----------------|-3----3---3----3---5----|
A|-------------------|-------------------|-------------------|------------------------|
                                                                    *        *
       ..............      ..............      ..............  
D|-------------------|-------------------|-------------------|------------------|----------------------|
A|---------0---------|---------0---------|---------0---------|------------------|----------------------|
F|-----0--------0----|-----0--------0----|-----0--------0----|------------------|----------------------|
C|-------------------|-------------------|-------------------|------------------|----------------------|
G|-3-----------------|-7-----------------|-5-----------------|-10-----10-----10-|----10-----10----10---|
D|-1-----------------|-5-----------------|-3-----------------|-8---8--8---8--7--|-7--7---7--7-s8--8-s7-|
A|-------------------|-------------------|-------------------|------------------|----------------------|
                                                                   *      *       *      *                  
D|------------------|------------------|------------------|------------------|
A|------------------|------------------|------------------|------------------|
F|------------------|------------------|------------------|------------------| x3
C|------------------|------------------|------------------|------------------|
G|------------------|------------------|---------------7--|--7------7--9--9--|
D|-3------3------2--|--2------2--3--2--|-5------5------5--|--5------5--7--7--|
A|-1---1--1---0--0--|--0---0--0--1--0--|-3---3--3---3--5--|--5---5--5--7--7--|
       *      *            *                 *      *            *
D|------------------------|----------------------|----------------------|------------------|
A|------------------------|----------------------|----------------------|------------------|
F|------------------------|----------------------|----------------------|------------------|
C|------------------------|----------------------|----------------------|------------------|
G|------------------------|----------------------|-------------------7--|--7------7--9--9--|
D|-3--------3--------2----|----2--------2--3--2--|-5--------5--------5--|--5------5--7--7--|
A|-1--1--1--1--1--1--0--0-|-0--0--0--0--0--1--0--|-3--3--3--3--3--3--5--|--5---5--5--7--7--|
      *  *     *  *     *   *     *  *                *  *     *  *            *

|--------------------------------------------------------------------------------------------------------|
|                                          BRIDGE (02:11-03:17)                                          |
|--------------------------------------------------------------------------------------------------------|

Guitars 1 and 2 (w/ dist)
                                                      ----------------|
D|--------------------------------|----------------------------|      |
A|--------------------------------|----------------------------|      |
F|--------------------------------|----------------------------|      |
C|--------------------------------|----------------------------|      |
G|--------------------------------|----------------------------|      |
D|--------------------------------|----------------------------|      |
A|-2-2-2-2-2-2-2-2-2------2-2-2-2-|-2-2-2-2-2------2-2-2--2--2-|      |
   * * * * * * * * *      * * * *   * * * * *      * * *  *  *        |
D|--------------------------------|---------------------|             |
A|--------------------------------|---------------------|             |
F|--------------------------------|---------------------|             |
C|--------------------------------|---------------------|             |
G|--------------------------------|-------------5---4---|             | 
D|--------------------------------|-------------3---2---|             |
A|-2-2-2-2-2-2-2-2-2------2-2-2-2-|-2--2--2--2----------|             |
   * * * * * * * * *      * * * *   *  *  *  *                        | x3
D|--------------------------------|----------------------------|      |
A|--------------------------------|----------------------------|      |
F|--------------------------------|----------------------------|      |
C|--------------------------------|----------------------------|      |
G|--------------------------------|----------------------------|      |
D|--------------------------------|----------------------------|      |
A|-2-2-2-2-2-2-2-2-2------2-2-2-2-|-2-2-2-2-2------2-2-2--2--2-|      |
   * * * * * * * * *      * * * *   * * * * *      * * *  *  *        |
D|--------------------------------|---------------------|             |
A|--------------------------------|---------------------|             |
F|--------------------------------|---------------------|             |
C|--------------------------------|---------------------|             |
G|--------------------------------|-------------5---7---|             |
D|--------------------------------|-------------3---5---|             |
A|-2-2-2-2-2-2-2-2-2------2-2-2-2-|-2--2--2--2----------|             |
   * * * * * * * * *      * * * *   *  *  *  *        ----------------|

D|---------------------------|----------------------|
A|---------------------------|----------------------|
F|---------------------------|----------------------| x2
C|---------------------------|----------------------|
G|----------5-s4-------------|-------------7-s6--7--|
D|-5-s4-----3-s2--2--2-2-2-2-|-2--7-s6-----5-s4--5--|
A|-3-s2--2-------------------|----5-s4--4-----------|
         *        *  * * * *   *        *

D|--------------------------------|----------------------------|
A|--------------------------------|----------------------------|
F|--------------------------------|----------------------------|
C|--------------------------------|----------------------------|
G|--------------------------------|----------------------------|
D|--------------------------------|----------------------------|
A|-2-2-2-2-2-2-2-2-2------2-2-2-2-|-2-2-2-2-2------2-2-2--2--2-|
   * * * * * * * * *      * * * *   * * * * *      * * *  *  *
D|--------------------------------|---------------------|
A|--------------------------------|---------------------|
F|--------------------------------|---------------------|
C|--------------------------------|---------------------|
G|--------------------------------|-------------5---4---|
D|--------------------------------|-------------3---2---|
A|-2-2-2-2-2-2-2-2-2------2-2-2-2-|-2--2--2--2----------|
   * * * * * * * * *      * * * *   *  *  *  *  
D|--------------------------------|----------------------------|
A|--------------------------------|----------------------------|
F|--------------------------------|----------------------------|
C|--------------------------------|----------------------------|
G|--------------------------------|----------------------------|
D|--------------------------------|----------------------------|
A|-2-2-2-2-2-2-2-2-2------2-2-2-2-|-2-2-2-2-2------2-2-2--2--2-|
   * * * * * * * * *      * * * *   * * * * *      * * *  *  *
D|--------------------------------|---------------------|
A|--------------------------------|---------------------|
F|--------------------------------|---------------------|
C|--------------------------------|---------------------|
G|--------------------------------|-------------5---7---|
D|--------------------------------|-------------3---5---|
A|-2-2-2-2-2-2-2-2-2------2-2-2-2-|-2--2--2--2----------|
   * * * * * * * * *      * * * *   *  *  *  *   

D|---------------------------|----------------------|
A|---------------------------|----------------------|
F|---------------------------|----------------------| x4
C|---------------------------|----------------------|
G|----------5-s4-------------|-------------7-s6--7--|
D|-5-s4-----3-s2--2--2-2-2-2-|-2--7-s6-----5-s4--5--|
A|-3-s2--2-------------------|----5-s4--4-----------|
         *        *  * * * *   *        *

D|------------------------|------------------------|------------------------|-------------------------|
A|------------------------|------------------------|------------------------|-------------------------|
F|------------------------|------------------------|------------------------|-------------------------|
C|------------------------|------------------------|------------------------|-------------------------|
G|------------------------|------------------------|------------------------|-------------------------|
D|------------------------|------------------------|------------------------|-------------------------|
A|-3--2--1--2-----1--3--2-|-1--2-----1--1-----2--1-|-3--2--1--2-----1--3--2-|-1--2-----1--1-1-1--1--1-|
                  *                  *                              *                  *  * * *  *  *
D|------------------------|------------------------|------------------------|---------------------|
A|------------------------|------------------------|------------------------|---------------------|
F|------------------------|------------------------|------------------------|---------------------|
C|------------------------|------------------------|------------------------|---------------------|
G|------------------------|------------------------|------------------------|---------------------|
D|------------------------|------------------------|------------------------|---------------------|
A|-3--2--1--2-----1--3--2-|-1--2-----1--1-----2--1-|-3--2--1--2-----1--3--2-|-1--2-----1--1-------|
                  *                  *                              *                  *

|--------------------------------------------------------------------------------------------------------|
|                                         CHORUS 2 (03:17-03:57)                                         |
|--------------------------------------------------------------------------------------------------------|

Guitars 1 and 2 (w/ dist)

       ..............      ..............      ..............  
D|-------------------|-------------------|-------------------|------------------------|
A|---------0---------|---------0---------|---------0---------|------------------------|
F|-----0--------0----|-----0--------0----|-----0--------0----|------------------------|
C|-------------------|-------------------|-------------------|------------------------|
G|-3-----------------|-7-----------------|-5-----------------|-5--------5--------7----|
D|-1-----------------|-5-----------------|-3-----------------|-3----3---3----3---5----|
A|-------------------|-------------------|-------------------|------------------------|
                                                                    *        *
       ..............      ..............      ..............  
D|-------------------|-------------------|-------------------|------------------------|
A|---------0---------|---------0---------|---------0---------|------------------------|
F|-----0--------0----|-----0--------0----|-----0--------0----|------------------------|
C|-------------------|-------------------|-------------------|------------------------|
G|-3-----------------|-7-----------------|-5-----------------|-5--------5--------2----|
D|-1-----------------|-5-----------------|-3-----------------|-3----3---3----3---0----|
A|-------------------|-------------------|-------------------|------------------------|
                                                                    *        *
       ..............      ..............      ..............  
D|-------------------|-------------------|-------------------|------------------------|
A|---------0---------|---------0---------|---------0---------|------------------------|
F|-----0--------0----|-----0--------0----|-----0--------0----|------------------------|
C|-------------------|-------------------|-------------------|------------------------|
G|-3-----------------|-7-----------------|-5-----------------|-5--------5--------7----|
D|-1-----------------|-5-----------------|-3-----------------|-3----3---3----3---5----|
A|-------------------|-------------------|-------------------|------------------------|
                                                                    *        *
       ..............      ..............      ..............  
D|-------------------|-------------------|-------------------|------------------|----------------------|
A|---------0---------|---------0---------|---------0---------|------------------|----------------------|
F|-----0--------0----|-----0--------0----|-----0--------0----|------------------|----------------------|
C|-------------------|-------------------|-------------------|------------------|----------------------|
G|-3-----------------|-7-----------------|-5-----------------|-10-----10-----10-|----10-----10----10---|
D|-1-----------------|-5-----------------|-3-----------------|-8---8--8---8--7--|-7--7---7--7-s8--8-s7-|
A|-------------------|-------------------|-------------------|------------------|----------------------|
                                                                   *      *       *      *
D|------------------------|------------------------|------------------------|------------------------|
A|------------------------|------------------------|------------------------|------------------------|
F|------------------------|------------------------|------------------------|------------------------|
C|------------------------|------------------------|------------------------|------------------------|
G|-3--------3--------3----|-7--------7--------7----|-5--------5--------5----|----5--------5-----7----|
D|-1--1--1--1--1--1--1--1-|-5--5--5--5--5--5--5--5-|-3--3--3--3--3--3--3--3-|-3--3--3--3--3--3--5--5-|
A|------------------------|------------------------|------------------------|------------------------|
      *  *     *  *     *      *  *     *  *     *      *  *     *  *     *   *     *  *     *     *
D|------------------------|------------------------|------------------------|------------------------|
A|------------------------|------------------------|------------------------|------------------------|
F|------------------------|------------------------|------------------------|------------------------|
C|------------------------|------------------------|------------------------|------------------------|
G|-3--------3--------3----|-7--------7--------7----|-5--------5--------5----|----5--------5-----2----|
D|-1--1--1--1--1--1--1--1-|-5--5--5--5--5--5--5--5-|-3--3--3--3--3--3--3--3-|-3--3--3--3--3--3--0--0-|
A|------------------------|------------------------|------------------------|------------------------|
      *  *     *  *     *      *  *     *  *     *      *  *     *  *     *   *     *  *     *     *
D|------------------------|------------------------|------------------------|------------------------|
A|------------------------|------------------------|------------------------|------------------------|
F|------------------------|------------------------|------------------------|------------------------|
C|------------------------|------------------------|------------------------|------------------------|
G|-3--------3--------3----|-7--------7--------7----|-5--------5--------5----|----5--------5-----7----|
D|-1--1--1--1--1--1--1--1-|-5--5--5--5--5--5--5--5-|-3--3--3--3--3--3--3--3-|-3--3--3--3--3--3--5--5-|
A|------------------------|------------------------|------------------------|------------------------|
      *  *     *  *     *      *  *     *  *     *      *  *     *  *     *   *     *  *     *     *
D|------------------------|------------------------|------------------------|
A|------------------------|------------------------|------------------------|
F|------------------------|------------------------|------------------------|
C|------------------------|------------------------|------------------------|
G|-3--------3--------3----|-7--------7--------7----|-5--------5--------5----|
D|-1--1--1--1--1--1--1--1-|-5--5--5--5--5--5--5--5-|-3--3--3--3--3--3--3--3-|
A|------------------------|------------------------|------------------------|
      *  *     *  *     *      *  *     *  *     *      *  *     *  *     * 
D|------------------|----------------------|
A|------------------|----------------------|
F|------------------|----------------------|
C|------------------|----------------------|
G|-10-----10-----10-|----10-----10----10---|
D|-8---8--8---8--7--|-7--7---7--7-s8--8-s7-|
A|------------------|----------------------|
       *      *       *      *    

|--------------------------------------------------------------------------------------------------------|
|                                          OUTRO (03:57-04:19)                                           |
|--------------------------------------------------------------------------------------------------------|

Guitars 1 and 2 (w/ dist)

D|------------------|------------------|------------------|------------------|
A|------------------|------------------|------------------|------------------|
F|------------------|------------------|------------------|------------------| x3
C|------------------|------------------|------------------|------------------|
G|------------------|------------------|---------------7--|--7------7--9--9--|
D|-3------3------2--|--2------2--3--2--|-5------5------5--|--5------5--7--7--|
A|-1---1--1---0--0--|--0---0--0--1--0--|-3---3--3---3--5--|--5---5--5--7--7--|
       *      *            *                 *      *            *
D|------------------------|----------------------|-----------------|-------------------|
A|------------------------|----------------------|-----------------|-------------------|
F|------------------------|----------------------|-----------------|-------------------|
C|------------------------|----------------------|-----------------|-------------------|
G|------------------------|----------------------|--------------7--|--7----7--7--9--9--|
D|-3--------3--------2----|----2--------2--3--2--|-5----5----5--5--|--5----5--5--7--7--|
A|-1--1--1--1--1--1--0--0-|-0--0--0--0--0--1--0--|-3----3----3--5--|--5----5--5--7--7--|
      *  *     *  *     *   *     *  *   
Добавлено: 07.10.2015
Другие материалы по этой песне:

Страница создана 07.10.2015
http://primanota.ru/fear-factory/dielectric-chords.htm
Привет, Гость.
Предлагаем пройти революционный курс по гитаре.
Подарок от PrimaNota.Ru, забирай!