PrimaNota.ru - самый крупный в мире бесплатный архив песенных текстов, аккордов, табулатур и нот


Fear Factory - Genexus - таба, видео

Регистрация Запомнить меня
Войти через:  Facebook Google Twitter Vk Yandex Mail.ru

Fear Factory - Genexus - таба, видео

Печатать
Просмотров: 48
Авторы: Burton C. Bell, Dino Cazares

|--------------------------------------------------------------------------------------------------------|
|                                         FEAR FACTORY - GENEXUS                                         |
|                                          Album: Genexus (2015)                                         |
|                                            Tab by Godspeedy                                            |
|--------------------------------------------------------------------------------------------------------|

                   If you have questions or corrections feel free to send me a message:
                                    https://www.facebook.com/Godspeedy14
                     
                 Also check out my Youtube channel: http://www.youtube.com/user/Godspeedy14

                                        Tuning: 7 strings ADGCFAD
                                                    
*********************************************GUITAR NOTATIONS*********************************************
*                                                                                                        *
*                                      | *   palm mute           |                                       *
*                                      | s   slide               |                                       *
*                                      | h   hammer-on           |                                       *
*                                      | x   muted note          |                                       *
*                                      | П   downstroke          |                                       *
*                                      | V   upstroke            |                                       *
*                                                                                                        *
**********************************************************************************************************

|--------------------------------------------------------------------------------------------------------|
|                                          INTRO (00:00-00:38)                                           |
|--------------------------------------------------------------------------------------------------------|

Guitars 1 and 2 (w/ dist)

   П V П  П  П V П  П V П  П V   П  П  П V П  П V П  П V П
E|-----------------------------|---------------------------|
B|-----------------------------|---------------------------|
G|-----------------------------|---------------------------|
D|-----------------------------|---------------------------|
A|-----------------------------|---------------------------|
E|-----------------------------|---------------------------|
B|-2-2-2--2--3-3-3--2-2-2--2-2-|-2--2--3-3-3--3-3-3--2-2-2-|
   * * *  *  * * *  * * *  * *   *  *  * * *  * * *  * * *

   П V П  П  П V П  П V П   П V  П  П  П V П  П V П  П V П V
E|-----------------------------|-----------------------------|
B|-----------------------------|-----------------------------|
G|-----------------------------|-----------------------------|
D|-----------------------------|-----------------------------|
A|-----------------------------|-----------------------------|
E|-----------------------------|-----------------------------|
B|-2-2-2--2--3-3-3--2-2-2--2-2-|-2--2--3-3-3--3-3-3--5-5-5-5-|
   * * *  *  * * *  * * *  * *   *  *  * * *  * * *  * * * *

   П V П  П  П V П  П V П  П V   П  П  П V П  П V П  П V П
E|-----------------------------|---------------------------|
B|-----------------------------|---------------------------|
G|-----------------------------|---------------------------|
D|-----------------------------|---------------------------|
A|-----------------------------|---------------------------|
E|-----------------------------|---------------------------|
B|-2-2-2--2--3-3-3--2-2-2--2-2-|-2--2--3-3-3--3-3-3--2-2-2-|
   * * *  *  * * *  * * *  * *   *  *  * * *  * * *  * * *

   П V П  П  П V П  П V П  П V   П  П  П V П  П V П  П 
E|-----------------------------|-------------------------|
B|-----------------------------|-------------------------|
G|-----------------------------|-------------------------|
D|-----------------------------|-------------------------|
A|-----------------------------|-------------------------|
E|-----------------------------|-------------------------|
B|-2-2-2--2--3-3-3--2-2-2--2-2-|-2--2--3-3-3--3-3-3--5---|
   * * *  *  * * *  * * *  * *   *  *  * * *  * * *  *

   П V П  П  П V П  П V П  П V   П  П  П V П  П V П  П V П
E|-----------------------------|---------------------------|
B|-----------------------------|---------------------------|
G|-----------------------------|---------------------------|
D|-----------------------------|---------------------------|
A|-----------------------------|---------------------------|
E|-----------------------------|---------------------------|\
B|-2-2-2--2--3-3-3--2-2-2--2-2-|-2--2--3-3-3--3-3-3--2-2-2-| \
   * * *  *  * * *  * * *  * *   *  *  * * *  * * *  * * *    \
                                                               x4
   П V П  П  П V П  П V П  П V   П  П  П V П  П V П  П V П V   /
E|-----------------------------|-----------------------------|/
B|-----------------------------|-----------------------------|
G|-----------------------------|-----------------------------|
D|-----------------------------|-----------------------------|
A|-----------------------------|-----------------------------|
E|-----------------------------|-----------------------------|
B|-2-2-2--2--3-3-3--2-2-2--2-2-|-2--2--3-3-3--3-3-3--5-5-5-5-|
   * * *  *  * * *  * * *  * *   *  *  * * *  * * *  * * * *

|--------------------------------------------------------------------------------------------------------|
|                                          VERSE (00:38-01:04)                                           |
|--------------------------------------------------------------------------------------------------------|

Guitars 1 and 2 (w/ dist)

   П V П  П  П V П  П V П  П V   П       П  П V П  П V П
E|-----------------------------|--------------------------|
B|-----------------------------|--------------------------|
G|-----------------------------|--------------------------| x3
D|-----------------------------|--------------------------|
A|-----------------------------|--------------------------|
E|-----------------------------|--------------------------|
B|-2-2-2--2--3-3-3--2-2-2--2-2-|-2-------2--3-3-3--3-3-3--|
   * * *  *  * * *  * * *  * *   *       *  * * *  * * *

   П V П  П  П V П  П V П  П V   П       П  П V П  П V П V
E|-----------------------------|---------------------------|
B|-----------------------------|---------------------------|
G|-----------------------------|---------------------------|
D|-----------------------------|---------------------------|
A|-----------------------------|---------------------------|
E|-----------------------------|---------------------------|
B|-2-2-2--2--3-3-3--2-2-2--2-2-|-2-------2--3-3-3--5-5-5-5-|
   * * *  *  * * *  * * *  * *   *       *  * * *  * * * *

   П V П  П  П V П  П V П  П V   П       П  П V П  П V П
E|-----------------------------|--------------------------|
B|-----------------------------|--------------------------|
G|-----------------------------|--------------------------|
D|-----------------------------|--------------------------|
A|-----------------------------|--------------------------|
E|-----------------------------|--------------------------|
B|-2-2-2--2--3-3-3--2-2-2--2-2-|-2-------2--3-3-3--3-3-3--|
   * * *  *  * * *  * * *  * *   *       *  * * *  * * *

   П V П  П  П V П  П V П  П V   П  П  П V П  П V П  П V П V
E|-----------------------------|-----------------------------|
B|-----------------------------|-----------------------------|
G|-----------------------------|-----------------------------|
D|-----------------------------|-----------------------------|
A|-----------------------------|-----------------------------|
E|-----------------------------|-----------------------------|
B|-2-2-2--2--3-3-3--2-2-2--2-2-|-2--2--3-3-3--3-3-3--5-5-5-5-|
   * * *  *  * * *  * * *  * *   *  *  * * *  * * *  * * * *

   П V П  П  П V П  П V П  П V   П       П  П V П V П V П V
E|-----------------------------|----------------------------|
B|-----------------------------|----------------------------|
G|-----------------------------|----------------------------|
D|-----------------------------|----------------------------|
A|-----------------------------|----------------------------|
E|-----------------------------|----------------------------|
B|-2-2-2--2--3-3-3--2-2-2--2-2-|-2-------2--3-3-3-3-3-3-3-3-|
   * * *  *  * * *  * * *  * *   *       *  * * * * * * * *

   П V П  П  П V П  П V П  П V   П       П  П V П V П V П V
E|-----------------------------|----------------------------|
B|-----------------------------|----------------------------|
G|-----------------------------|----------------------------|
D|-----------------------------|----------------------------|
A|-----------------------------|----------------------------|
E|-----------------------------|----------------------------|
B|-2-2-2--2--3-3-3--2-2-2--2-2-|-2-------2--3-3-3-3-5-5-5-5-|
   * * *  *  * * *  * * *  * *   *       *  * * * * * * * *

   П V П  П  П V П  П V П  П V   П       П  П V П V П V П V
E|-----------------------------|----------------------------|
B|-----------------------------|----------------------------|
G|-----------------------------|----------------------------|
D|-----------------------------|----------------------------|
A|-----------------------------|----------------------------|
E|-----------------------------|----------------------------|
B|-2-2-2--2--3-3-3--2-2-2--2-2-|-2-------2--3-3-3-3-3-3-3-3-|
   * * *  *  * * *  * * *  * *   *       *  * * * * * * * *

   П V П  П  П V П  П V П  П V   П  П  П V П  П V П  П V П V 
E|-----------------------------|-----------------------------|
B|-----------------------------|-----------------------------|
G|-----------------------------|-----------------------------|
D|-----------------------------|-----------------------------|
A|-----------------------------|-----------------------------|
E|-----------------------------|-----------------------------|
B|-2-2-2--2--3-3-3--2-2-2--2-2-|-2--2--3-3-3--3-3-3--5-5-5-5-|
   * * *  *  * * *  * * *  * *   *  *  * * *  * * *  * * * *
                              
|--------------------------------------------------------------------------------------------------------|
|                                        PRE-CHORUS (01:04-01:24)                                        |
|--------------------------------------------------------------------------------------------------------|

Guitars 1 and 2 (w/ dist)

   П V П V П V П   П   П     П  П   П V П V П    П V П V П V П   П   П     П  V   П V П V П
E|-----------------------|---------------------|-----------------------|---------------------|
B|-----------------------|---------------------|-----------------------|---------------------|
G|-----------------------|---------------------|-----------------------|---------------------|
D|-----------------------|---------------------|-----------------------|---------------------|
A|-----------------------|---------------------|-----------------------|---------------------|
E|-------------5---4---7-|------7-----------7--|-------------5---4---8-|------8-----------10-|
B|-2-2-2-2-2-2-3---2---5-|---5--5---5-5-5-5-5--|-2-2-2-2-2-2-3---2---6-|---6--6---8-8-8-8-8--|
   * * * * * *               *      * * * *      * * * * * *               *      * * * *

   П V П V П V П   П   П     П  П   П V П V П    П V П V П V П   П   П     П  V   П V П V П
E|-----------------------|---------------------|-----------------------|---------------------|
B|-----------------------|---------------------|-----------------------|---------------------|
G|-----------------------|---------------------|-----------------------|---------------------|
D|-----------------------|---------------------|-----------------------|---------------------|
A|-----------------------|---------------------|-----------------------|---------------------|
E|-------------5---4---7-|------7-----------7--|-------------8---7---5-|------5-----------5--|
B|-2-2-2-2-2-2-3---2---5-|---5--5---5-5-5-5-5--|-6-6-6-6-6-6-6---5---3-|---3--3---3-3-3-3-3--|
   * * * * * *               *      * * * *      * * * * * *               *      * * * *

   П V П V П V П   П   П     П  П   П V П V П    П V П V П V П   П   П     П  V   П V П V П
E|-----------------------|---------------------|-----------------------|---------------------|
B|-----------------------|---------------------|-----------------------|---------------------|
G|-----------------------|---------------------|-----------------------|---------------------|
D|-----------------------|---------------------|-----------------------|---------------------|
A|-----------------------|---------------------|-----------------------|---------------------|
E|-------------5---4---7-|------7-----------7--|-------------5---4---8-|------8-----------10-|
B|-2-2-2-2-2-2-3---2---5-|---5--5---5-5-5-5-5--|-2-2-2-2-2-2-3---2---6-|---6--6---8-8-8-8-8--|
   * * * * * *               *      * * * *      * * * * * *               *      * * * * 

   П V П V П V П   П   П     П  П   П V П V П    П V П V П V П   П   П     П  П  П  П   П
E|-----------------------|---------------------|-----------------------|---------------------|
B|-----------------------|---------------------|-----------------------|---------------------|
G|-----------------------|---------------------|-----------------------|---------------------|
D|-----------------------|---------------------|-----------------------|---------------------|
A|-----------------------|---------------------|-----------------------|---------------------|
E|-------------5---4---7-|------7-----------7--|-------------5---4---2-|---2--2--2--2---2----|
B|-2-2-2-2-2-2-3---2---5-|---5--5---5-5-5-5-5--|-3-3-3-3-3-3-3---2---0-|---0--0--0--0---0----|
   * * * * * *               *      * * * *      * * * * * *               *  *  *  *   *

|--------------------------------------------------------------------------------------------------------|
|                                          CHORUS (01:24-01:48)                                          |
|--------------------------------------------------------------------------------------------------------|

Guitars 1 and 2 (w/ dist)

   П V П V П V П V П V П V П V П V   П V П V П V П V П V П V П V П V   П V П V П V П V П V П V П V П V 
E|---------------------------------|---------------------------------|---------------------------------|
B|---------------------------------|---------------------------------|---------------------------------|
G|---------------------------------|---------------------------------|---------------------------------|
D|---------------------------------|---------------------------------|---------------------------------|
A|---------------------------------|---------------------------------|---------------------------------|
E|---------------------------------|---------------------------------|---------------------------------|
B|-5-5-5-5-5-5-2-2-2-2-2-2-2-2-2-2-|-2-2-2-2-2-2-2-2-2-2-2-2-2-2-2-2-|-5-5-5-5-5-5-2-2-2-2-2-2-3-3-3-3-|

   П V П V П V П V П V П V П V П V   П V П V П V П V П V П V П V П V   П V П V П V П V П V П V П V П V 
E|---------------------------------|---------------------------------|---------------------------------|
B|---------------------------------|---------------------------------|---------------------------------|
G|---------------------------------|---------------------------------|---------------------------------|
D|---------------------------------|---------------------------------|---------------------------------|
A|---------------------------------|---------------------------------|---------------------------------|
E|---------------------------------|---------------------------------|---------------------------------|
B|-3-3-3-3-3-3-3-3-2-2-2-2-3-3-3-3-|-5-5-5-5-5-5-2-2-2-2-2-2-2-2-2-2-|-2-2-2-2-2-2-2-2-2-2-2-2-2-2-2-2-|
 
   П    П    П       П    П   П
E|---------------|----------------|
B|---------------|----------------|
G|---------------|----------------|
D|---------------|----------------|
A|---------------|----------------|
E|-7----4----2---|---2----5-------|
B|-5----2----0---|---0----3---0---|
                              *

   П V П V П V П V П V П V П V П V   П V П V П V П V П V П V П V П V   П V П V П V П V П V П V П V П V 
E|---------------------------------|---------------------------------|---------------------------------|
B|---------------------------------|---------------------------------|---------------------------------|
G|---------------------------------|---------------------------------|---------------------------------|
D|---------------------------------|---------------------------------|---------------------------------|
A|---------------------------------|---------------------------------|---------------------------------|
E|---------------------------------|---------------------------------|---------------------------------|
B|-5-5-5-5-5-5-2-2-2-2-2-2-2-2-2-2-|-2-2-2-2-2-2-2-2-2-2-2-2-2-2-2-2-|-5-5-5-5-5-5-2-2-2-2-2-2-3-3-3-3-|

   П V П V П V П V П V П V П V П V   П V П V П V П V П V П V П V П V   П V П V П V П V П V П V П V П V 
E|---------------------------------|---------------------------------|---------------------------------|
B|---------------------------------|---------------------------------|---------------------------------|
G|---------------------------------|---------------------------------|---------------------------------|
D|---------------------------------|---------------------------------|---------------------------------|
A|---------------------------------|---------------------------------|---------------------------------|
E|---------------------------------|---------------------------------|---------------------------------|
B|-3-3-3-3-3-3-3-3-2-2-2-2-3-3-3-3-|-5-5-5-5-5-5-2-2-2-2-2-2-2-2-2-2-|-2-2-2-2-2-2-2-2-2-2-2-2-2-2-2-2-|

   П    П    П       П    П   П     П    П    П       П    П   П
E|---------------|----------------|---------------|----------------|
B|---------------|----------------|---------------|----------------|
G|---------------|----------------|---------------|----------------|
D|---------------|----------------|---------------|----------------|
A|---------------|----------------|---------------|----------------|
E|-7----4----2---|---2----5---4---|-7----4----2---|---2----5---7---|
B|-5----2----0---|---0----3---2---|-5----2----0---|---0----3---5---|

|--------------------------------------------------------------------------------------------------------|
|                                        POST-CHORUS (01:48-02:08)                                       |
|--------------------------------------------------------------------------------------------------------|

Guitars 1 and 2 (w/ dist)

   П V П  П  П V П  П V П  П V   П  П  П V П  П V П  П V П
E|-----------------------------|---------------------------|
B|-----------------------------|---------------------------|
G|-----------------------------|---------------------------|
D|-----------------------------|---------------------------|
A|-----------------------------|---------------------------|
E|-----------------------------|---------------------------|\
B|-2-2-2--2--3-3-3--2-2-2--2-2-|-2--2--3-3-3--3-3-3--2-2-2-| \
   * * *  *  * * *  * * *  * *   *  *  * * *  * * *  * * *    \
                                                               x4
   П V П  П  П V П  П V П  П V   П  П  П V П  П V П  П V П V   /
E|-----------------------------|-----------------------------|/
B|-----------------------------|-----------------------------|
G|-----------------------------|-----------------------------|
D|-----------------------------|-----------------------------|
A|-----------------------------|-----------------------------|
E|-----------------------------|-----------------------------|
B|-2-2-2--2--3-3-3--2-2-2--2-2-|-2--2--3-3-3--3-3-3--5-5-5-5-|
   * * *  *  * * *  * * *  * *   *  *  * * *  * * *  * * * *

|--------------------------------------------------------------------------------------------------------|
|                                         VERSE 2 (02:08-02:34)                                          |
|--------------------------------------------------------------------------------------------------------|
                                              same as VERSE
|--------------------------------------------------------------------------------------------------------|
|                                       PRE-CHORUS 2 (02:34-02:54)                                       |
|--------------------------------------------------------------------------------------------------------|
                                           same as PRE-CHORUS
|--------------------------------------------------------------------------------------------------------|
|                                         CHORUS 2 (02:54-03:18)                                         |
|--------------------------------------------------------------------------------------------------------|
                                              same as CHORUS
|--------------------------------------------------------------------------------------------------------|
|                                          BRIDGE (03:18-04:00)                                          |
|--------------------------------------------------------------------------------------------------------|

I. Guitar 1 (w/ dist) - fade in

   П   П  П   П   П     П  П   П   П      П  П  П  П   П  П  П     П  V  П  П V П V П V П V 
E|------------------|-------------------|----------------------|----------------------------|
B|------------------|-------------------|----------------------|----------------------------|
G|------------------|-------------------|----------------------|----------------------------|
D|------------------|-------------------|----------------------|----------------------------|
A|------------------|-------------------|----------------------|----------------------------|
E|------------------|-------------------|----------------------|----------------------------|
B|-2---2--3---2---2-|---2--3---3---2-h3-|-2--2--2--3---2--2--2-|---2--3--2--5-5-5-5-5-5-5-5-|
       *                *                 *  *  *      *  *        *  *  *  * * * * * * * *

   П   П  П   П   П     П  П   П   П      П  П  П  П   П  П  П
E|------------------|-------------------|----------------------|---------|
B|------------------|-------------------|----------------------|---------|
G|------------------|-------------------|----------------------|---------|
D|------------------|-------------------|----------------------|---------|
A|------------------|-------------------|----------------------|---------|
E|------------------|-------------------|----------------------|---------|
B|-2---2--3---2---2-|---2--3---3---2-h3-|-2--2--2--3---2--2--2-|---------|
       *                *                 *  *  *      *  *

II. Guitars 1 and 2 (w/ dist)

     П  V  П  П V П V П V П V 
E|----------------------------|
B|----------------------------|
G|----------------------------|
D|----------------------------|
A|----------------------------|
E|----------------------------|
B|---2--3--2--5-5-5-5-5-5-5-5-|
     *  *  *  * * * * * * * *

   П   П  П   П   П     П  П   П   П      П   П  П   П   П     П  П   П   П V П V
E|------------------|-------------------|------------------|----------------------|
B|------------------|-------------------|------------------|----------------------|
G|------------------|-------------------|------------------|----------------------|
D|------------------|-------------------|------------------|----------------------|
A|------------------|-------------------|------------------|----------------------|
E|-4------5---4---4-|------5---5---4-s5-|-4------5---4---4-|------5---5-----------|
B|-2---2--3---2---2-|---2--3---3---2-s3-|-2---2--3---2---2-|---2--3---3---5-5-5-5-|
       *                *                     *                *          * * * *

   П   П  П   П   П     П  П   П   П      П   П  П   П   П     П  П   П V П V П V П V
E|------------------|-------------------|------------------|--------------------------|
B|------------------|-------------------|------------------|--------------------------|
G|------------------|-------------------|------------------|--------------------------|
D|------------------|-------------------|------------------|--------------------------|
A|------------------|-------------------|------------------|--------------------------|
E|-4------5---4---4-|------5---5---4-s5-|-4------5---4---4-|------5-------------------|
B|-2---2--3---2---2-|---2--3---3---2-s3-|-2---2--3---2---2-|---2--3---5-5-5-5-5-5-5-5-|
       *                *                     *                *      * * * * * * * *

   П   П  П   П   П     П  П   П   П    П   П  П   П   П     П  П   П   П 
E|------------------|-----------------|------------------|-----------------|
B|------------------|-----------------|------------------|-----------------|
G|------------------|-----------------|------------------|-----------------| x3
D|------------------|-----------------|------------------|-----------------|
A|------------------|-----------------|------------------|-----------------|
E|-4------5---4---4-|------5---5---8--|-4------5---4---4-|------5---5---7--|
B|-2---2--3---2---2-|---2--3---3---6--|-2---2--3---2---2-|---2--3---3---5--|
       *                *                   *                *

   П   П  П   П   П     П  П   П   П    П   П  П   П   П     П  П  П  П 
E|------------------|-----------------|------------------|-----------------|
B|------------------|-----------------|------------------|-----------------|
G|------------------|-----------------|------------------|-----------------|
D|------------------|-----------------|------------------|-----------------|
A|------------------|-----------------|------------------|-----------------|
E|-4------5---4---4-|------5---5---8--|-4------5---4---2-|---2--2--2--2----|
B|-2---2--3---2---2-|---2--3---3---6--|-2---2--3---2---0-|---0--0--0--0----|
       *                *                   *                *  *  *  *

|--------------------------------------------------------------------------------------------------------|
|                                         CHORUS 3 (04:00-04:25)                                         |
|--------------------------------------------------------------------------------------------------------|

Guitars 1 and 2 (w/ dist)

   П V П V П V П V П V П V П V П V   П V П V П V П V П V П V П V П V   П V П V П V П V П V П V П V П V 
E|---------------------------------|---------------------------------|---------------------------------|
B|---------------------------------|---------------------------------|---------------------------------|
G|---------------------------------|---------------------------------|---------------------------------|
D|---------------------------------|---------------------------------|---------------------------------|
A|---------------------------------|---------------------------------|---------------------------------|
E|---------------------------------|---------------------------------|---------------------------------|
B|-5-5-5-5-5-5-2-2-2-2-2-2-2-2-2-2-|-2-2-2-2-2-2-2-2-2-2-2-2-2-2-2-2-|-5-5-5-5-5-5-2-2-2-2-2-2-3-3-3-3-|

   П V П V П V П V П V П V П V П V   П V П V П V П V П V П V П V П V   П V П V П V П V П V П V П V П V 
E|---------------------------------|---------------------------------|---------------------------------|
B|---------------------------------|---------------------------------|---------------------------------|
G|---------------------------------|---------------------------------|---------------------------------|
D|---------------------------------|---------------------------------|---------------------------------|
A|---------------------------------|---------------------------------|---------------------------------|
E|---------------------------------|---------------------------------|---------------------------------|
B|-3-3-3-3-3-3-3-3-2-2-2-2-3-3-3-3-|-5-5-5-5-5-5-2-2-2-2-2-2-2-2-2-2-|-2-2-2-2-2-2-2-2-2-2-2-2-2-2-2-2-|

   П    П    П       П    П   П
E|---------------|----------------|
B|---------------|----------------|
G|---------------|----------------|
D|---------------|----------------|
A|---------------|----------------|
E|-7----4----2---|---2----5-------|
B|-5----2----0---|---0----3---0---|
                              *

   П V П V П V П V П V П V П V П V   П V П V П V П V П V П V П V П V   П V П V П V П V П V П V П V П V 
E|---------------------------------|---------------------------------|---------------------------------|
B|---------------------------------|---------------------------------|---------------------------------|
G|---------------------------------|---------------------------------|---------------------------------|
D|---------------------------------|---------------------------------|---------------------------------|
A|---------------------------------|---------------------------------|---------------------------------|
E|---------------------------------|---------------------------------|---------------------------------|
B|-5-5-5-5-5-5-2-2-2-2-2-2-2-2-2-2-|-2-2-2-2-2-2-2-2-2-2-2-2-2-2-2-2-|-5-5-5-5-5-5-2-2-2-2-2-2-3-3-3-3-|

   П V П V П V П V П V П V П V П V   П V П V П V П V П V П V П V П V   П V П V П V П V П V П V П V П V 
E|---------------------------------|---------------------------------|---------------------------------|
B|---------------------------------|---------------------------------|---------------------------------|
G|---------------------------------|---------------------------------|---------------------------------|
D|---------------------------------|---------------------------------|---------------------------------|
A|---------------------------------|---------------------------------|---------------------------------|
E|---------------------------------|---------------------------------|---------------------------------|
B|-3-3-3-3-3-3-3-3-2-2-2-2-3-3-3-3-|-5-5-5-5-5-5-2-2-2-2-2-2-2-2-2-2-|-2-2-2-2-2-2-2-2-2-2-2-2-2-2-2-2-|

   П    П    П       П    П   П     П    П    П       П    П   П     П    П    П       П    П   П
E|---------------|----------------|---------------|----------------|---------------|----------------|
B|---------------|----------------|---------------|----------------|---------------|----------------|
G|---------------|----------------|---------------|----------------|---------------|----------------|
D|---------------|----------------|---------------|----------------|---------------|----------------|
A|---------------|----------------|---------------|----------------|---------------|----------------|
E|-7----4----2---|---2----5---4---|-7----4----2---|---2----5---4---|-7----4----2---|---2----5---7---|
B|-5----2----0---|---0----3---2---|-5----2----0---|---0----3---2---|-5----2----0---|---0----3---5---|

|--------------------------------------------------------------------------------------------------------|
|                                          OUTRO (04:25-04:48)                                           |
|--------------------------------------------------------------------------------------------------------|

Guitars 1 and 2 (w/ dist)

   П V П  П  П V П  П V П  П V   П  П  П V П  П V П  П V П
E|-----------------------------|---------------------------|
B|-----------------------------|---------------------------|
G|-----------------------------|---------------------------|
D|-----------------------------|---------------------------|
A|-----------------------------|---------------------------|
E|-----------------------------|---------------------------|\
B|-2-2-2--2--3-3-3--2-2-2--2-2-|-2--2--3-3-3--3-3-3--2-2-2-| \
   * * *  *  * * *  * * *  * *   *  *  * * *  * * *  * * *    \
                                                               x3
   П V П  П  П V П  П V П  П V   П  П  П V П  П V П  П V П V   /
E|-----------------------------|-----------------------------|/
B|-----------------------------|-----------------------------|
G|-----------------------------|-----------------------------|
D|-----------------------------|-----------------------------|
A|-----------------------------|-----------------------------|
E|-----------------------------|-----------------------------|
B|-2-2-2--2--3-3-3--2-2-2--2-2-|-2--2--3-3-3--3-3-3--5-5-5-5-|
   * * *  *  * * *  * * *  * *   *  *  * * *  * * *  * * * *

   П V П  П  П V П  П V П  П V   П  П  П V П  П V П  П V П
E|-----------------------------|---------------------------|
B|-----------------------------|---------------------------|
G|-----------------------------|---------------------------|
D|-----------------------------|---------------------------|
A|-----------------------------|---------------------------|
E|-----------------------------|---------------------------|
B|-2-2-2--2--3-3-3--2-2-2--2-2-|-2--2--3-3-3--3-3-3--2-2-2-|
   * * *  *  * * *  * * *  * *   *  *  * * *  * * *  * * *

   П V П  П  П V П  П V П  П V   П  П  П V П  П V П V П V П V
E|-----------------------------|------------------------------|
B|-----------------------------|------------------------------|
G|-----------------------------|------------------------------|
D|-----------------------------|------------------------------|
A|-----------------------------|------------------------------|
E|-----------------------------|------------------------------|
B|-2-2-2--2--3-3-3--2-2-2--2-2-|-2--2--3-2-2--5-5-5-5-5-5-5-5-|
   * * *  *  * * *  * * *  * *   *  *  * * *  * * * * * * * *

Добавлено: 07.10.2015
Другие материалы по этой песне:

Страница создана 07.10.2015
http://primanota.ru/fear-factory/genexus-chords.htm
Привет, Гость.
Предлагаем пройти революционный курс по гитаре.
Подарок от PrimaNota.Ru, забирай!