PrimaNota.ru - самый крупный в мире бесплатный архив песенных текстов, аккордов, табулатур и нот


Fear Factory - Cars bass - бас-таба, видео

Регистрация Запомнить меня
Войти через:  Facebook Google Twitter Vk Yandex Mail.ru

Fear Factory - Cars bass - бас-таба, видео

Печатать
Просмотров: 104


hey this is my first tab so be kind 


     intro/main riff

D-----5-7-7-7------------
A--5-4--------------x4---
D------------------------
G------------------------

D--4-5-------------------
A------2-5---x2----------
D------------------------
G------------------------


Chorus

D--0---------------0--------------
A----5--0---2-3-2-----5-0---------
D--------------------------3-2----
G---------------------------------

D--0---------------0--------------
A----5--0---2-3-2-----0-0-0-0-----
D---------------------------------
G---------------------------------

Alternative ending riff 

D------------------
A--5-4-7-4---------
D------------------
G------------------


there you go thats the basis of the song i'm sure you guys can work out the struture 

Добавлено: 26.08.2013
Другие материалы по этой песне:
  • Аккорды и текст

Страница создана 26.08.2013
http://primanota.ru/fear-factory/cars-bass-chords.htm
Привет, Гость.
Предлагаем пройти революционный курс по гитаре.
Подарок от PrimaNota.Ru, забирай!