PrimaNota.ru - самый крупный в мире бесплатный архив песенных текстов, аккордов, табулатур и нот


Fear Factory - Invisible wounds the suture mix - бас-таба, видео

Регистрация Запомнить меня
Войти через:  Facebook Google Twitter Vk Yandex Mail.ru

Fear Factory - Invisible wounds the suture mix - бас-таба, видео

Печатать
Просмотров: 117


TAB INFO
Band: Fear Factory
Song: Invisible Wounds (The Suture Mix)
Album: Resident Evil Soundtrack
Year: 2002
Tab Type: Bass
Tuning: BEADG
Length: 3:36
Tabbed By: Dustin (theNemesis013@hotmail.com)

Riff 1
G -|--------------------------------------------------------|
D -|--------------------------------------------------------|
A -|--------------------------------------------------------|
E -|--------------222--------------222-4-444-44-44-4222-6-|
B -|-5-555-55-55-5----3-333-33-33-3-------------------------|

Riff 2
G -|------------------------------------------------|
D -|------------------------------------------------|
A -|------------------------------------------------|
E -|---------------------------4--------------------|
B -|-5--------6/4-6--------6/4----------6/4-0-------|

Riff 3
G -|-----------------------------------------------------|
D -|-----------------------------------------------------|
A -|-----------------------------------------------------|
E -|-------------222-------------222-4-444-444-44222-----|
B -|-5-555-555-55----3-333-333-33------------------------|

Riff 4
G -|------------------------------|
D -|------------------------------|
A -|------------------------------|
E -|-------------------4--------6-|
B -|-5--------3-------------------|

Riff 5
G -|-----------------------------------------------------|
D -|-----------------------------------------------------|
A -|-----------------------------------------------------|
E -|-------------222-------------222-4-444-444-44222-6-|
B -|-5-555-555-55----3-333-333-33------------------------|

G -|-----------------------------------------------------|
D -|-----------------------------------------------------|
A -|-----------------------------------------------------|
E -|-------------222-------------222-4-444-444-44222-6---|
B -|-5-555-555-55----3-333-333-33------------------------|

Song Structure:
Riff 1: 0:13	x1
Riff 2: 0:25	x2
Riff 1: 0:50	x2
Riff 2: 1:16	x2
Riff 1: 1:41	x1
Riff 3: 1:54	x1
pause : 2:06
Riff 4:	2:19	x1
Riff 1: 2:35	x2
Riff 5: 3:00	x1

Добавлено: 28.02.2014
Другие материалы по этой песне:
  • Аккорды и текст

Страница создана 28.02.2014
http://primanota.ru/fear-factory/invisible-wounds-the-suture-mix-2-chords.htm
Привет, Гость.
Предлагаем пройти революционный курс по гитаре.
Подарок от PrimaNota.Ru, забирай!