PrimaNota.ru - самый крупный в мире бесплатный архив песенных текстов, аккордов, табулатур и нот


Explosions In The Sky - The Birth And Death Of The Day - таба, видео

Регистрация Запомнить меня
Войти через:  Facebook Google Twitter Vk Yandex Mail.ru

Explosions In The Sky - The Birth And Death Of The Day - таба, видео

Печатать
Просмотров: 163
Band: explosions in the sky
Song: the birth and death of the day
Album: All of a sudden i miss everyone
standar tuning

this tab  is an arrange for 1 guitar 

   intro

you figure the sound pick up fast

  [ second 27 ]

|------16----17----16-----------12----14----12----------|
|-------------------------------------------------------|
|-------------------------------------------------------|
|-------------------------------------------------------|
|-------------------------------------------------------|
|-------------------------------------------------------|


|------19----17----16----17-19----17----16----12----14----12--------------|
|-------------------------------------------------------------------------|
|-------------------------------------------------------------------------|
|-------------------------------------------------------------------------|
|-------------------------------------------------------------------------|
|-------------------------------------------------------------------------|


|------16----17----16-----------12----14----12----------|
|-------------------------------------------------------|
|-------------------------------------------------------|
|-------------------------------------------------------|
|-------------------------------------------------------|
|-------------------------------------------------------|


  [2:16]
|------------------------------------------------------------|
|------------------------------------------------------------|
|-----7-------9----------------------------------------------|
|-----X-------X-----7----------------------------------------|
|-----5-------7-----X----------------------------------------|
|-------------------5----------------------------------------|

  
   [2:30]
|---------------------------------------------------------------------|
|---------------------------------------------------------------------|
|---------------------------------------------------------------------|
|------7----9---11-------9---7-----7---9---11-------------------------|
|----------------------------------------------------9-----11---------|
|---------------------------------------------------------------------|



|---------------------------------------------------------------------|
|---------------------------------------------------------------------|
|----14--13-/9-9/11----14--13-/7-7/9----------------------------------|
|---------------------------------------------------------------------|
|---------------------------------------------------------------------|
|---------------------------------------------------------------------|



|---------------------------------------------------------------------|
|---------------------------------------------------------------------|
|---------------------------------------------------------------------|
|------7----9---11-------9---7-----7---9---11-------------------------|
|----------------------------------------------------9-----11---------|
|---------------------------------------------------------------------|


|---------------------------------------------------------------------|
|---------------------------------------------------------------------|
|----14--13-/9-9/11----14--13-/7-7/9----------------------------------|
|---------------------------------------------------------------------|
|---------------------------------------------------------------------|
|---------------------------------------------------------------------|

                                    [3:14]                                    

|-----------------------------------12--10--9--7--10--9--7--5---12--10--9--7--10--9--7--5--|
|------------------------------------------------------------------------------------------|
|------------------------------------------------------------------------------------------|
|------7----9---11-------9---7-------------------------------------------------------------|
|------------------------------------------------------------------------------------------|
|------------------------------------------------------------------------------------------|


|--12--10--9-----------------|
|----------------------------|
|----------------------------|
|----------------------------|
|----------------------------|
|----------------------------|


   [3:40]

|---------------------------------------------------------------------|
|---------------------------------------------------------------------|
|-----12--11--7---12--11--6/18-18--21--19-18-16--19-18-14-------------|
|----------------------------------------------------------12---------|
|---------------------------------------------------------------------|
|---------------------------------------------------------------------|


|---------------------------------------------------------------------|
|---------------------------------------------------------------------|
|--9--12--11--7---12--11--6/18-18--21--19-18-16--19-18-14-------------|
|----------------------------------------------------------12---------|
|---------------------------------------------------------------------|
|---------------------------------------------------------------------|

  SECOND GUITAR STRUM [4:06]

|---------------------------------------------------------------------|
|---------------------------------------------------------------------|
|--9--12--11--7---12--11--6/18-18--21--19-18-16--19-18-14-------------|
|----------------------------------------------------------12---------|
|---------------------------------------------------------------------|
|---------------------------------------------------------------------|

|---------------------------------------------------------------------|
|---------------------------------------------------------------------|
|--9--12--11--7---12--11--6/18-18--21--19-18-16--19-18-14-------------|
|---------------------------------------------------------------------|
|---------------------------------------------------------------------|
|---------------------------------------------------------------------|

 KIND OF FAST  [4:36]

|---------------------------------------------------------------------|
|---------------------------------------------------------------------|
|--9--12--11--7---12--11--6/18-18--21--19-18-16--19-18-14-------------|
|----------------------------------------------------------12---------|
|---------------------------------------------------------------------|
|---------------------------------------------------------------------|


                                                       FASTER PICK UP

|-------------------------------------------------------------------------|
|-------------------------------------------------------------------------|
|--9--12--11--7---12--11--6/18-18--21--19-18-21-19-18-21-21-21------------|
|-------------------------------------------------------------------------|
|-------------------------------------------------------------------------|
|-------------------------------------------------------------------------|



|--12---17---22-21-17--22-21-16---17-19-21-22-----------------------------|
|-------------------------------------------------------------------------|
|-------------------------------------------------------------------------|
|-------------------------------------------------------------------------|
|-------------------------------------------------------------------------|
|-------------------------------------------------------------------------|

                                           FASTER PICK UP

|--12---17---22-21-17--22-21-16---17-19-21-22-22-22-22--------------------|
|-------------------------------------------------------------------------|
|-------------------------------------------------------------------------|
|-------------------------------------------------------------------------|
|-------------------------------------------------------------------------|
|-------------------------------------------------------------------------|


|--15-14--19---15-14--19---15-14-20-19---15-14--19---15-14--19---15-14--20-22----|
|--------------------------------------------------------------------------------|
|--------------------------------------------------------------------------------|
|--------------------------------------------------------------------------------|
|--------------------------------------------------------------------------------|
|--------------------------------------------------------------------------------|

THEN CAME A LITTLE PIECE THAT I CANT FIGURE IT CUZ IS SO CONFUSE

 FINISH 


|--15-14--19---15-14--19---15-14-20-19---15-14--19---15-14--19---15-14--20-22----|
|--------------------------------------------------------------------------------|
|--------------------------------------------------------------------------------|
|--------------------------------------------------------------------------------|
|--------------------------------------------------------------------------------|
|--------------------------------------------------------------------------------|








Добавлено: 28.05.2012
Другие материалы по этой песне:

Страница создана 13.04.2012
http://primanota.ru/explosions-in-the-sky/the-birth-and-death-of-the-day-chords.htm
Привет, Гость.
Предлагаем пройти революционный курс по гитаре.
Подарок от PrimaNota.Ru, забирай!