PrimaNota.ru - самый крупный в мире бесплатный архив песенных текстов, аккордов, табулатур и нот


Exies - Baptize Me - текст песни, таба, видео

Регистрация Запомнить меня
Войти через:  Facebook Google Twitter Vk Yandex Mail.ru

Exies - Baptize Me - текст песни, таба, видео

Печатать
Просмотров: 311
Title: Baptize Me
Artist: The Exies

Tuning: Drop Db - Db,Ab,Db,Gb,Bb,Eb (or C#,G#,C#,F#,A#,D#)
Key: 	PM = palm mute
	\ or / = slide
	x = muted note


Verse x6 (clean)
eb|--------------------------------|
Bb|--------------------------------|
Gb|-------7------------------------|
Db|------9-------7-----5-----------|
Ab|----9-------7-----5----------5--|
Db|--9-------7-----5-----2--2-4----|


Pre-Chorus 1 (distortion)
eb|-------------------------------------------------|
Bb|-------------------------------------------------|
Gb|--4---11-7--7-9-12--9-11-9-7---4-9-11-7--7-9-12--|
Db|-------------------------------------------------|
Ab|-------------------------------------------------|
Db|-------------------------------------------------|


Chorus 1 (distortion)
eb|------------|
Bb|------------|
Gb|------------|
Db|--0-2--2-0--|
Ab|--0-2--2-0--|
Db|--0-2--2-0--|

eb|--------------------------------|
Bb|--------------------------------|
Gb|--------------------------------|
Db|--9-9-9-9--7-7--5-5-5-5--2-2-0--| x3
Ab|--9-9-9-9--7-7--5-5-5-5--2-2-0--|
Db|--9-9-9-9--7-7--5-5-5-5--2-2-0--|

eb|-------------------------------------|
Bb|-------------------------------------|
Gb|-------------------------------------|
Db|--9-9-9-9--11-11--12-12-12-0-2--2-0--|
Ab|--9-9-9-9--11-11--12-12-12-0-2--2-0--|
Db|--9-9-9-9--11-11--12-12-12-0-2--2-0--|

eb|--------------------------------|
Bb|--------------------------------|
Gb|--------------------------------|
Db|--9-9-9-9--7-7--5-5-5-5--2-2-0--| x2
Ab|--9-9-9-9--7-7--5-5-5-5--2-2-0--|
Db|--9-9-9-9--7-7--5-5-5-5--2-2-0--|


Post Chorus (distortion)
eb|----------------------------------------------|
Bb|----------------------------------------------|
Gb|--7-7-7-7--6-6--2-2-2-2--4-4---7-7-7--6-6-----|
Db|--x-x-x-x--x-x--x-x-x-x--x-x---x-x-x--x-x--2--|
Ab|--5-5-5-5--4-4--0-0-0-0--2-2---5-5-5--4-4--2--|
Db|----------------------------------------------|


Verse x4 (clean)
eb|--------------------------------|
Bb|--------------------------------|
Gb|-------7------------------------|
Db|------9-------7-----5-----------| 
Ab|----9-------7-----5----------5--|
Db|--9-------7-----5-----2--2-4----|


Pre Chorus 2 (distortion)
eb|-----------------------------------|
Bb|-----------------------------------|
Gb|-----------------------------------|
Db|-----------------------------------|
Ab|--9-9-9-9-9-7-7-7-5-5-5-5-5-2-2-0--|
Db|--9-9-9-9-9-7-7-7-5-5-5-5-5-2-2-0--|
    |--------------PM---------------|

eb|-------------------------|
Bb|-------------------------|
Gb|-------------------------|
Db|-------------------------|
Ab|--9-9-9-9-9-7-7-7-5-5-5--|
Db|--9-9-9-9-9-7-7-7-5-5-5--|
    |----------PM---------|


Chorus Altered (distortion)
eb|------------|
Bb|------------|
Gb|------------|
Db|--0-2--2-0--|
Ab|--0-2--2-0--|
Db|--0-2--2-0--|

eb|--------------------------------|
Bb|--------------------------------|
Gb|--------------------------------|
Db|--9-9-9-9--7-7--5-5-5-5--2-2-0--| x3
Ab|--9-9-9-9--7-7--5-5-5-5--2-2-0--|
Db|--9-9-9-9--7-7--5-5-5-5--2-2-0--|

eb|-------------------------------------|
Bb|-------------------------------------|
Gb|-------------------------------------|
Db|--9-9-9-9--11-11--12-12-12-0-2--2-0--|
Ab|--9-9-9-9--11-11--12-12-12-0-2--2-0--|
Db|--9-9-9-9--11-11--12-12-12-0-2--2-0--|

eb|--------------------------------|
Bb|--------------------------------|
Gb|--------------------------------|
Db|--9-9-9-9--7-7--5-5-5-5--2-2-0--|
Ab|--9-9-9-9--7-7--5-5-5-5--2-2-0--|
Db|--9-9-9-9--7-7--5-5-5-5--2-2-0--|

eb|--------------------------------|
Bb|--------------------------------|
Gb|--------------------------------|
Db|--9-9-9-9--7-7--5-5-5-0-2--2-0--|
Ab|--9-9-9-9--7-7--5-5-5-0-2--2-0--|
Db|--9-9-9-9--7-7--5-5-5-0-2--2-0--|

eb|--------------------------------|
Bb|--------------------------------|
Gb|--------------------------------|
Db|--9-9-9-9--7-7--5-5-5-5--2-2-0--|
Ab|--9-9-9-9--7-7--5-5-5-5--2-2-0--|
Db|--9-9-9-9--7-7--5-5-5-5--2-2-0--|

eb|--------------------------------------|
Bb|--------------------------------------|
Gb|--------------------------------------|
Db|--9-9-9-9--11-11--12-12-12-12--14-14--|
Ab|--9-9-9-9--11-11--12-12-12-12--14-14--|
Db|--9-9-9-9--11-11--12-12-12-12--14-14--|


Solo (distortion)
eb|--------------------|
Bb|--------------------|
Gb|--------------------|
Db|---6/7-6/7\6--4-4---| x4
Ab|---x/x-x/x\x--x-x---|
Db|---4/5-4/5\4--2-2---|

eb|------------------|
Bb|------------------|
Gb|------------------|
Db|---6/7-6-6--4-4---| x2
Ab|---x/x-x-x--x-x---|
Db|---4/5-4-4--2-2---|

eb|------------------------|
Bb|------------------------|
Gb|------------------------|
Db|--6-6-6--7-7-7--9-9--4--|
Ab|--x-x-x--x-x-x--x-x--x--|
Db|--4-4-4--5-5-5--7-7--2--|


Verse Altered (clean)
eb|--------------------------------|
Bb|--------------------------------|
Gb|-------7------------------------|
Db|------9-------7-----5-----------| x3
Ab|----9-------7-----5----------5--|
Db|--9-------7-----5-----2--2-4----|

eb|--------------------|
Bb|--------------------|
Gb|-------7------------|
Db|------9-------7-----|
Ab|----9-------7-------|
Db|--9-------7-----5---|


End Chorus (distortion)
eb|----------|
Bb|----------|
Gb|----------|
Db|--2--2-0--|
Ab|--2--2-0--|
Db|--2--2-0--|

eb|--------------------------------|
Bb|--------------------------------|
Gb|--------------------------------|
Db|--9-9-9-9--7-7--5-5-5-5--2-2-0--|
Ab|--9-9-9-9--7-7--5-5-5-5--2-2-0--|
Db|--9-9-9-9--7-7--5-5-5-5--2-2-0--|

eb|--------------------------------|
Bb|--------------------------------|
Gb|--------------------------------|
Db|--9-9-9-9--7-7--5-5-5-0-2--2-0--|
Ab|--9-9-9-9--7-7--5-5-5-0-2--2-0--|
Db|--9-9-9-9--7-7--5-5-5-0-2--2-0--|

eb|--------------------------------|
Bb|--------------------------------|
Gb|--------------------------------|
Db|--9-9-9-9--7-7--5-5-5-5--2-2-0--|
Ab|--9-9-9-9--7-7--5-5-5-5--2-2-0--|
Db|--9-9-9-9--7-7--5-5-5-5--2-2-0--|

eb|--------------------------------------|
Bb|--------------------------------------|
Gb|--------------------------------------|
Db|--9-9-9-9--11-11--12-12-12-12--14-14--|
Ab|--9-9-9-9--11-11--12-12-12-12--14-14--|
Db|--9-9-9-9--11-11--12-12-12-12--14-14--|


End Solo (distortion)
eb|--------------------|
Bb|--------------------|
Gb|--------------------|
Db|---6/7-6/7\6--4-4---|
Ab|---x/x-x/x\x--x-x---|
Db|---4/5-4/5\4--2-2---|

eb|------------------|
Bb|------------------|
Gb|------------------|
Db|---6/7-6-6--4-4---|
Ab|---x/x-x-x--x-x---|
Db|---4/5-4-4--2-2---|

eb|------------------------|
Bb|------------------------|
Gb|------------------------|
Db|--6-6-6--7-7-7--9-9--4--|
Ab|--6-6-6--7-7-7--9-9--4--|
Db|--4-4-4--5-5-5--7-7--2--|
Добавлено: 03.05.2012
Другие материалы по этой песне:
  • Аккорды и текст

Страница создана 03.05.2012
http://primanota.ru/exies/baptize-me-chords.htm
Привет, Гость.
Предлагаем пройти революционный курс по гитаре.
Подарок от PrimaNota.Ru, забирай!