PrimaNota.ru - самый крупный в мире бесплатный архив песенных текстов, аккордов, табулатур и нот


Exies - Better Now - текст песни, таба, видео

Регистрация Запомнить меня
Войти через:  Facebook Google Twitter Vk Yandex Mail.ru

Exies - Better Now - текст песни, таба, видео

Печатать
Просмотров: 174
intro starts off with this lead repeated
d(--------------)
a(--10-11-10-13-)
f(--------------)
c(--------------)
g(--------------)
C(--------------)

d(---------------------------------)
a(---------------------------------)
f(---------------------------------)
c(--1111-0---3---377---0---3---377-)
g(--1111-0---3---377---0---3---377-)
C(--1111-0---3---377---0---3---377-)
  pm....

ending lead(lead)
d(-----------------)
a(--10-11-10-8/3-3-)
f(-----------------)
c(-----------------)
g(-----------------)
C(-----------------)

verse x4
d(---------------------------)
a(-------------------------6-)
f(------------------5-7------)
c(----7-8-7---7---------7----)
g(--5-------5---5-3----------)
C(---------------------------)

pre-chorus x2
d(--------)
a(--------)
f(--0---3-)
c(--0---3-)
g(--0---3-)
C(--------)

pre-chorus(lead) x2
d(---------------------------)
a(---------10--------10---10-)
f(--10/7-7----10/7-7----7----)
c(---------------------------)
g(---------------------------)
C(---------------------------)

pre-chorus continued
d(---------------)
a(---------------)
f(---------------)
c(--555555777777-)
g(--555555777777-)
C(--555555777777-)
  pm..

chorus
d(-----------------------------------)
a(-----------------------------------)
f(-----------------------------------)
c(--88888888777777778888888877777777-)
g(--88888888777777778888888877777777-)
C(--88888888777777778888888877777777-)

chorus continued
d(----------------------------)
a(----------------------------)
f(----------------------77777-)
c(--8888888877777777888877777-)
g(--8888888877777777888855555-)
C(--88888888777777778888------)

chorus continued
d(-------------------------------------------------------------)
a(-------------------------------------------------------------)
f(--7-7-77-777-77-5-5-55-666-6677-7-7-77-777-77-5-5-55-666-667-)
c(--7-7-77-777-77-5-5-55-666-6677-7-7-77-777-77-5-5-55-666-667-)
g(--5-5-55-555-55-3-3-33-444-4455-5-5-55-555-55-3-3-33-444-445-)
C(-------------------------------------------------------------)
                             pm..

bridge  x2
d(----------------------------)
a(----------------------------)
f(--777-777/5-55-7-7-77-------)
c(--777-777/5-55-7-7-778p7-77-)
g(--555-555/3-33-5-5-558p7-77-)
C(---------------------8p7-77-)

bridge continued
d(----------------------------------)
a(----------------------------------)
f(--7-7-777/5-55-55-----------------)
c(--7-7-777/5-55-55-8-8-888p7-77-77-)
g(--5-5-555/3-33-33-8-8-888p7-77-77-)
C(------------------8-8-888p7-77-77-)

bridge continued
d(----------------------------------)
a(----------------------------------)
f(--7-7-777/5-55-55-----------------)
c(--7-7-777/5-55-55-8-8-888p7-7-5-3-)
g(--5-5-555/3-33-33-8-8-888p7-7-5-3-)
C(------------------8-8-888p7-7-5-3-)

bridge continued
d(----------------------------------)
a(----------------------------------)
f(--7-7-777/5-55-55-----------------)
c(--7-7-777/5-55-55-8-8-888p7-77-77-)
g(--5-5-555/3-33-33-8-8-888p7-77-77-)
C(------------------8-8-888p7-77-77-)

bridge continued
d(----------------------------------)
a(----------------------------------)
f(--7-7-777/5-55-55-----------------)
c(--7-7-777/5-55-55-8-8-888p7-77-77-)
g(--5-5-555/3-33-33-8-8-888p7-77-77-)
C(------------------8-8-888p7-77-77-)

bridge(lead)  x3
d(-------------------------------------)
a(--3-3-333/5-55-555/6-6-666/8-8-888/3-)
f(-------------------------------------)
c(-------------------------------------)
g(-------------------------------------)
C(-------------------------------------)

bridge(lead) conitinued
d(----------11-10----------------------------------------------)
a(--8h10-10-x--x---15-15-13-13-13h15-13-13/11-11-11-11-1111/10-)
f(----------8--7-----------------------------------------------)
c(-------------------------------------------------------------)
g(-------------------------------------------------------------)
C(-------------------------------------------------------------)

bridge(lead) continued
d(----------------)
a(--10-10-8-11-10-)
f(----------------)
c(----------------)
g(----------------)
C(----------------)

lead for the last chorus  repeated
d(---------------------------)
a(---------10--------10---10-)
f(--10/7-7----10/7-7----7----)
c(---------------------------)
g(---------------------------)
C(---------------------------)
Добавлено: 29.04.2012
Другие материалы по этой песне:
  • Аккорды и текст

Страница создана 29.02.2012
http://primanota.ru/exies/better-now-chords.htm
Привет, Гость.
Предлагаем пройти революционный курс по гитаре.
Подарок от PrimaNota.Ru, забирай!